Song name
# A B C D E F G H I J K L M N O P Q R S T U V W X Y Z

Misc Unsigned Bands - Set Back - If It Is tab

Artist: Set Back
Song: If It Is
Album: Conquered
Tuning: Standard

Riff One
E---------------------|
B---------------------|
G------9999------7777-|
D-5555-9999-7777-7777-|
A-5555-7777-7777-5555-| x5
E-3333------5555------|

Riff Two
E-------------------------------|
B-------------------------------|
G-------------------------------|
D-14141414-17171717-22~-22~-22~-|
A-14141414-17171717-22~-22~-22~-| x10
E-12121212-15151515-00~-00~-00~-|

Riff Three
E------------------------|
B------------------------|
G------------------------|
D---7---5---9-----12---2-|
A--7---5---9----12----2--| x3
E-5---3---7---10-----0---|

Riff Four
E-------------------------------------------------------|
B-------------------------------------------------------|
G-------------------------------------------------------|
D-22222222-55555555-99999999-22222222-99999999-77777777-|
A-22222222-55555555-99999999-22222222-99999999-77777777-|
E-00000000-33333333-77777777-00000000-77777777-55555555-|


E------------------|
B------------------|
G------------------|
D------------------|
A------------------|
E-drop string to d-

Riff Five
E-------------------------|
B-------------------------|
G-------------------------|
D-00000-0-0-00000---------|
A-00000-0-0-00000-4-6-3-2-| x3
D-00000-0-0-00000-3-5-2-1-|
pm                      .

Riff Six
E-------------|
B-------------|
G-------------|
D-------------|
A-4~-6~-3~-2~-| x2
D-3~-5~-2~-1~-|

End on
E---
B---
G---
D-0-
A-0-
E-0-
Tap to rate this tab
# A B C D E F G H I J K L M N O P Q R S T U V W X Y Z