Song name
# A B C D E F G H I J K L M N O P Q R S T U V W X Y Z

Misc Unsigned Bands - Ingenting - Liden tab

gitar
     Q     H         E  E    
E||-------------------------|
B||-------------------------|
G||--7b----7b--------L--7b--|
D||-------------------------|
A||-------------------------|
E||-------------------------|


             |----3----|     
  Q    Q     Q    Q    Q     
----------------------------|
-------------5----6----8----|
--L----7b-------------------|
----------------------------|
----------------------------|
----------------------------|


                    |-3-|  
  Q.     S S Q.     S S S  
--------------------------|
--5-----------------------|
---------7-5-7------4-5-4-|
--------------------------|
--------------------------|
--------------------------|


  E  E  E  E  E  E  E  E   
--------------------------|
--------------------------|
--4--5--4-----------------|
-----------5--------------|
--------------7--5--------|
--------------------8--5--|


  H        E  E  E  E   
-----------------------|
--------------5--------|
--------------5--x--5--|
--7--------------x-----|
-----------------------|
-----------------------|


  E  E  E  E  E  E  E   E   
---------------------------|
---------------------------|
--L-----------5-----7b--7--|
--------7--------7---------|
-----7---------------------|
---------------------------|


                  |-3-|  
  H.           E  S S S  
----------------------5-|
--------------------5---|
--L------------L--5-----|
------------------------|
------------------------|
------------------------|


              |-3-|            
  E  E  E  E  S S S E  E  E    
--5--7--8--7--5-7-5----5------|
--------------------8-----8s--|
------------------------------|
------------------------------|
------------------------------|
------------------------------|


   H        E  E  E  E   
---------------8--7-----|
--10--------L--------8--|
------------------------|
------------------------|
------------------------|
------------------------|


  Q      E   E  E   E  E  E   
-----------------------------|
--L---------10---------------|
-------7g9------7b--7--5--7--|
-----------------------------|
-----------------------------|
-----------------------------|


  E  E   E  Q    E   E   E   
------------8-----------10--|
----------------------------|
--L--4s--5-------5s--7------|
----------------------------|
----------------------------|
----------------------------|


  E   E  E  E   E   E  E   E   
---------8---------12---------|
------------------------------|
--7s--5-----5s--9------9s--7--|
------------------------------|
------------------------------|
------------------------------|


   E  E    E   H        E   
--10----------15-----------|
---------------------------|
------7s--12---------------|
---------------------------|
---------------------------|
---------------------------|


  E   Q      H         E   
--------------------------|
-----20b----20--------20--|
--------------------------|
--------------------------|
--------------------------|
--------------------------|


                    |--3--|          
  E   E   E   Q     S  S  S  E   E   
------------------------------------|
--L--18--17--18----17-18-17---------|
----------------------------19--17--|
------------------------------------|
------------------------------------|
------------------------------------|


   E    S  S  S  S  E    S  S  S  S  E   E   
----------17---------------17---------------|
-------17----20-17------17----20-17-20--17--|
--19b--------------19b----------------------|
--------------------------------------------|
--------------------------------------------|
--------------------------------------------|


   S  S  S  S  S  S  S  S  S  S  S  S  S  S  
--20-17----20-17----19-17----20-17----22-17--
--------17-------17-------17-------17-------1
---------------------------------------------
---------------------------------------------
---------------------------------------------
---------------------------------------------


   S  S  S  S  S  S  S  S  S  S  S  S  E   E 
--17----19-17----20-17----19-17----20-17-----
-----17-------17-------17-------17--------17-
---------------------------------------------
---------------------------------------------
---------------------------------------------
---------------------------------------------


   E    Q     Q     E   E   E   
-----------------------17------|
--20b--20----20----20------20--|
-------------------------------|
-------------------------------|
-------------------------------|
-------------------------------|


   E   E   E   E   Q      Q      
--17--19--17------20b----20b----|
--------------20----------------|
--------------------------------|
--------------------------------|
--------------------------------|
--------------------------------|


   Q.      Q     E   E   E   
--20------20----19--17--19--|
----------------------------|
----------------------------|
----------------------------|
----------------------------|
----------------------------|


   E   E   E   Q     E   E   E   
---L--17------17----------------|
----------20--------20--17--20--|
--------------------------------|
--------------------------------|
--------------------------------|
--------------------------------|


   Q     E   E   E   E  E   E    
--------------------------------|
--17----------------20----------|
--------19--17--19---------19b--|
--------------------------------|
--------------------------------|
--------------------------------|


   E   S  S  Q     E   E   E    E   
------------------17-----------17--|
----------------------17--20b------|
---L--19-17-19---------------------|
-----------------------------------|
-----------------------------------|
-----------------------------------|


   W                                       
----------------------|-------------------|
--20b~----------------|-------------------|
----------------------|-------------------|
----------------------|-------------------|
----------------------|-------------------|
----------------------|-------------------|


-------------------|-------------------||
-------------------|-------------------||
-------------------|-------------------||
-------------------|-------------------||
-------------------|-------------------||
-------------------|-------------------||




Duration Legend
---------------
W - whole
H - half
Q - quarter
E - 8th
S - 16th
T - 32nd
X - 64th
. - note dotted
|-n-|  - n-tuplets


Tablature Legend
----------------
L - tied note
x - dead note
g - grace note
(n) - ghost note
> - accentuded note
NH - natural harmonic
AH - artificial harmonic
TH - tapped harmonic
SH - semi harmonic
PH - pitch harmonic
h - hammer on
p - pull off
b - bend
br - bendRelease
pb - preBend
pbr - preBendRelease
brb - bendReleaseBend
\n/ - tremolo bar dip
\n - tremolo bar dive
-/n - tremolo bar Release up
/n\ - tremolo bar inverted dip
/n - tremolo bar return
-\n - tremolo bar Release down
S - shift slide
s - legato slide
/ -  slide into from below or out of upwards
\ -  slide into from above or out of downwards
~ - vibrato
W - wide vibrato
tr - trill
TP - tremolo picking
T - tapping
S - slap
P - pop
< - fade in
^ - brush up
v - brush down
Tap to rate this tab
 
# A B C D E F G H I J K L M N O P Q R S T U V W X Y Z