Song name
# A B C D E F G H I J K L M N O P Q R S T U V W X Y Z

Misc Unsigned Bands - Classmate 67 - Hello To Me From You tab

This song is dedicated to Hannibal Lector because its about this man who killed his
family and was put in a cell thingy similar to what Hannibal was in, so when he falls in
with a guard, he believes she loves him back (she doesnt) but even if she did (which he 
she does) she couldnt tell him because (like Hannibal) he's an ex-phsycaiatrist (or
you spell it) so he could get into people's heads, so he told her "if you love me, tell 
other guard as a code 'hello to me, from you'" believe it or not wrote this song when i 
eleven years old, im 13 now, so, enjoy!

D4VEY A.D. (DAVID, GUITARIST AND VOCALS OF CLASSMATE 67)

Verse:
|----------------------------|
|----------------------------|
|----------------------------|
|----6--------8--------3-----|8x
|----6--------8--------3-----|
|----------------------------|


Pre Chorus:
|----------------------------|
|----------------------------|
|----------------------------|
|-------7----7----7----7-----|
|-----7----7----7----7-------|
|----------------------------|

                              4x

|----------------------------|
|----------------------------|
|----------------------------|
|-------6----6----6----6-----|
|-----6----6----6----6-------|
|----------------------------|


Chorus:
|----------------------------|
|----------------------------|
|----------------------------|
|-7-7--6--4--6-6---6---6---6-|4x
|-7-7--6--4--6---6---6---6---|
|----------------------------|

on last part (and ending):
|----------------------------|
|----------------------------|
|----------------------------|
|-7-7--6--4--6---------------|
|-7-7--6--4--6---------------|
|----------------------------|


Lyrics:

Verse:
Today was a good day,
cause i finally found the way,
to live a normal life,
without chopping up your kids or murdering your wife and,
let's talk more about you,
cause without you i will be forever blue and,
up above our true love will be true,
just say hello, to me, from you.

(PRE CHORUS then CHORUS)

I want to buy a home,
where ghost and creatures come to haunt us, when we are alone and,
in my dreams i see,
two people holding hands, represents you and me and,
let's talk more about you,
cause without you i will be forever blue and,
up above our true love will be true,
just say hello, to me, from you.

(PRE CHORUS then CHORUS)
fin.


thank you, any questions or comments contact me at daddevoe@yahoo.com
                   123
D4VEY A.D.         THE 3 E's= 666
12345 6|7          ICE
       |7          AGE
       |7          456
3 D's IN
DAVID DEVOE
=777                         6    7
                              6  7
                    CLASSSMATE 67
Tap to rate this tab
# A B C D E F G H I J K L M N O P Q R S T U V W X Y Z