Song name
# A B C D E F G H I J K L M N O P Q R S T U V W X Y Z

Misc Unsigned Bands - The Hoojits - Simons Plea tab

-----------------------------------------------------------------------------
			     SIMON'S PLEA - The Hoojits
-----------------------------------------------------------------------------
Tabbed by: Me
Email: You Wish M8

Tuning: EADGBe

Main Riff Part 1
e|--------------------------------------------------------------------------|
B|--------------------------------------------------------------------------|
G|--------------------------------------------------------------------------|
D|-11-11-\-4-4-/-8-8-8-8----------------------------------------------------|
A|-11-11-\-4-4-/-8-8-8-8----------------------------------------------------|
E|-9--9--\-2-2-/-6-6-6-6----------------------------------------------------|

Main Riff Part 2
e|-9-9----------------------------------------------------------------------|
B|-9-9----------------------------------------------------------------------|
G|-10-10--------------------------------------------------------------------|
D|-11-11--\-4-4-/-8-8-8-8---------------------------------------------------|
A|-11-11--\-4-4-/-8-8-8-8---------------------------------------------------|
E|-9--9---\-2-2-/-6-6-6-6---------------------------------------------------|

Chorus

e|-7-7-777-777-7-7-77--5-5-555-555-5-5-55--7-7-777-777-7-7-77--9--9--9--9---|
B|-8-8-888-888-8-8-88--7-7-777-777-7-7-77--8-8-888-888-8-8-88--11-11-11-11--|
G|-9-9-999-999-9-9-99--7-7-777-777-7-7-77--9-9-999-999-9-9-99--11-11-11-11--|
D|-9-9-999-999-9-9-99--7-7-777-777-7-7-77--9-9-999-999-9-9-99--11-11-11-11--|
A|-7-7-777-777-7-7-77--5-5-555-555-5-5-55--7-7-777-777-7-7-77--9--9--9--9---|
E|--------------------------------------------------------------------------|

e|-9--9--9------------------------------------------------------------------|
B|-11-11-11-----------------------------------------------------------------|
G|-11-11-11-----------------------------------------------------------------|
D|-11-11-11-----------------------------------------------------------------|
A|-9--9--9------------------------------------------------------------------|
E|--------------------------------------------------------------------------|

Solo
e|-----------------------------------9-11-9---------9--------------------11-|
B|-----------------------11--11-9-11--------11-9-11---11----13--13-11-13----|
G|-10(11)---------8-10-10--10-----------------------------11--11------------|
D|-10(11)-11-10-8-----------------------------------------------------------|
A|--------------------------------------------------------------------------|
E|--------------------------------------------------------------------------|

e|-13-11----------11--------------------14-16-14----------14----14///22-----|
B|-------13-11-13----13----16--16-14-16----------16-14-16----16-------------|
G|-----------------------14--14---------------------------------------------|
D|--------------------------------------------------------------------------|
A|--------------------------------------------------------------------------|
E|--------------------------------------------------------------------------|

2nd solo (in place of keyboard solo)
e|--------------------------------------------------------------------------|
B|-99-x------77-x-----55-x-----33-x-----99-x------77-x-----55-x-----333/55--|
G|-99-x-11-9/77-x-9-7/55-x-7-5/33-x-5-7/99-x-11-9/77-x-9-7/55-x-7-5/333/55--|
D|--------------------------------------------------------------------------|
A|--------------------------------------------------------------------------|
E|--------------------------------------------------------------------------|

e|--------------------77-x-----55/66/77-x-----55-x-----33----------00----00-|
B|-99-x------77-x-----77-x-9-7/55/66/77-x-9-7/55-x-7-5/33-x-5-3-0h2---0h2---|
G|-99-x-11-9/77-x-9-7-------------------------------------------------------|
D|--------------------------------------------------------------------------|
A|--------------------------------------------------------------------------|
E|--------------------------------------------------------------------------|

e|----00----00--------------------------------------------------------------|
B|-0h2---0h2----------------------------------------------------------------|
G|--------------------------------------------------------------------------|
D|--------------------------------------------------------------------------|
A|--------------------------------------------------------------------------|
E|--------------------------------------------------------------------------|

Order

Intro - Main Riff (x2)
        Main Riff 2 (x2)
Verse 1 - Bass
          Main Riff (x2)
Chorus
Solo
Bridge - Main Riff (x2)
Verse 2 - Bass
          Main Riff (x2)
Chorus
Keyboard Solo OR Solo 2 - Main Riff (x2)
                          Main Riff 2 (x2)
Bridge - Main Riff (x2)
Verse 3 - Bass
          Main Riff (x2)
Bass Solo - Bass (x2)
Verse 4 - Bass (x4)
Verse 5 - Main Riff (x4)
Outro - Main Riff (x2)
        Main Riff 2 (x2)
        End on C#

| /  slide up
| \  slide down
| h  hammer-on
| p  pull-off
| ~  vibrato
| +  harmonic
| x  Mute note
=============================================================================
Tap to rate this tab
# A B C D E F G H I J K L M N O P Q R S T U V W X Y Z