Song name
# A B C D E F G H I J K L M N O P Q R S T U V W X Y Z

Misc Unsigned Bands - Bankrupt - English 12-d tab

Band: Bankrupt
Song: English 12-D
Tabbist: Robin Wakerell (guitar_crazed_moron@hotmail.com)

Verse
e|----------------------------------|
B|----------------------------------|
G|---2---2---0---0---0---0---2---2--|
D|--2-2-2-2-2-2-2-2-2-2-2-2-2-2-2-2-|
A|-4---4---3---3---2---2---0---0----|
E|----------------------------------|
P.M................................

Chorus
e|------------------------------|
B|------------------------------|
G|-66666666-55555555-4444-------|
D|-66666666-55555555-4444-----2-|
A|-44444444-33333333-2222-----2-|
E|------------------------032-0-|

Bridge
e|--------------------------0-|
B|--------------------------0-|
G|---2---2---0---0---0---0--2-|
D|--2-2-2-2-2-2-2-2-2-2-2-2-2-|
A|-4---4---3---3---2---2----0-|
E|----------------------------|

Bridge 2
e|--------------------------------------------------------------|
B|--------------------------------------------------------------|
G|----6----6---6------5----5---5------4----4---4-----2----4---5-|
D|----6----6---6------5----5---5------4----4---4-----2----4---5-|
A|-44---44---4-----33---33---3-----22---22---2----00---00---0---|
E|--------------------------------------------------------------|

e|---------------------------------------------------------|
B|------------------------------------------------0-0-0000-|
G|----6----6---6------5----5---5------4----4---4--2-2-2222-|
D|----6----6---6------5----5---5------4----4---4--2-2-2222-|
A|-44---44---4-----33---33---3-----22---22---2----0-0-0000-|
E|---------------------------------------------------------|

Bridge 3
e|------------------------------|
B|------------------------------|
G|-66666666-55555555-4444-------|
D|-xxxxxxxx-xxxxxxxx-xxxx-----2-|
A|-44444444-33333333-2222-----2-|
E|------------------------032-0-|

e|----------------------------------------------------|
B|----------------------------------------------------|
G|-1818181818181818-1717171717171717-16161616---------|
D|--x-x-x-x-x-x-x-x--x-x-x-x-x-x-x-x--x-x-x-x-------2-|
A|-1616161616161616-1515151515151515-14141414-------2-|
E|----------------------------------------------032-0-|

Outro
e|----------------------0-|
B|----------------------0-|
G|---2------0------0----2-|
D|--2-2----2-2----2-2---2-|
A|-4------3------2------0-|
E|------------------------|

Song Order: Verse x6
		Chorus x2
		Bridge
		Verse x3
		Chorus x2
		Bridge 2
		Chorus x2
		Bridge 3
		Outro

Legend: P.M - palm mute
Tap to rate this tab
 
# A B C D E F G H I J K L M N O P Q R S T U V W X Y Z