Song name
# A B C D E F G H I J K L M N O P Q R S T U V W X Y Z

Misc Unsigned Bands - Soul Circumference - Insane tab

----------------------------------------------------------------------------
		        Insane - Soul Circumference
----------------------------------------------------------------------------
Tabbed by:
Email:

Tuning:Standard

Intro/Verse
e|-------------------------------------------------------------------------|
B|-------------------------------------------------------------------------|
G|-------------------------------------------------------------------------|
D|---------3---------------------3-----------------------------------------|
A|---5-5-5---5-------------5-5-5---5---------------------------------------|
E|--------------1-1-1-3-3------------1-1-1-3-3-----------------------------|

Chorus
e|-------------------------------------------------------------------------|
B|-------------------------------------------------------------------------|
G|----77777777777--55555555555---------------33333333333-------------------|
D|----77777777777--55555555555--33333333333--33333333333-------------------|
A|----55555555555--33333333333--33333333333--11111111111-------------------|
E|------------------------------11111111111--------------------------------|

CRAZY PART
e|-------------------------------------------------------------------------|
B|-------------------------------------------------------------------------|
G|-------------------------------------------------------------------------|
D|--------3-5-3------3-5-3------3-5-3-5b666r553----------------------------|
A|---5-55-------5555-------5555--------------------------------------------|
E|-------------------------------------------------------------------------|


| /  slide up
| \  slide down
| h  hammer-on
| p  pull-off
| ~  vibrato
| +  harmonic
| x  Mute note
===============================================================================
Tap to rate this tab
# A B C D E F G H I J K L M N O P Q R S T U V W X Y Z