Song name
# A B C D E F G H I J K L M N O P Q R S T U V W X Y Z

Misc Unsigned Bands - Chainlock - Joshuas Love Song tab

no distortion
drop c
pick dosen't sound right for this, you have to use your fingers


---9-----9-----9-----9----|
-----------0-----------0--|
-----0-----------0--------|
-7-----7-----7-----7------|
--------------------------|
--------------------------|

---7-----7-----7-----7----|
-----------0-----------0--|
-----0-----------0--------|
-5-----5-----5-----5------|
--------------------------|
--------------------------|

---9-----9-----9-----9----|
-----------0-----------0--|
-----0-----------0--------|
-7-----7-----7-----7------|
--------------------------|
--------------------------|


---7-----7-----7-----7----|
-----------0-----------0--|
-----0-----------0--------|
-5-----5-----5-----5------|
--------------------------|
--------------------------|

---9---9---9---9---7---7---7---7---|
-----------------------------------|
-----------------------------------|
-7---7---7---7---5---5---5---5-----|
-----------------------------------|
-----------------------------------|   x2


---9-----9-----9-----9----|
-----------0-----------0--|
-----0-----------0--------|
-7-----7-----7-----7------|
--------------------------|
--------------------------|


---7-----7-----7-----7----|
-----------0-----------0--|
-----0-----------0--------|
-5-----5-----5-----5------|
--------------------------|
--------------------------|

---9-----9-----9-----9----|
-----------0-----------0--|
-----0-----------0--------|
-7-----7-----7-----7------|
--------------------------|
--------------------------|

---7-----7-----7-----7----|
-----------0-----------0--|
-----0-----------0--------|
-5-----5-----5-----5------|
--------------------------|
--------------------------|

---9---9---9---9---7---7---7---7---|
-----------------------------------|
-----------------------------------|
-7---7---7---7---5---5---5---5-----|
-----------------------------------|
-----------------------------------|   x2

---0-----0-----0----0----------|
-----------0----------0--------|
-----0-----------0-------------|
-0-----0-----0-----0-----------|
-------------------------------|
-------------------------------|play this over and over until you want to stop
Tap to rate this tab
# A B C D E F G H I J K L M N O P Q R S T U V W X Y Z