Song name
# A B C D E F G H I J K L M N O P Q R S T U V W X Y Z

Misc Unsigned Bands - Chainlock - Pickle Fever tab

multiple bends     ^^^^
slide to the nut    \
slide down          /
hold note           ~


------------------------------------|
-5^^^^-5-5h6^^^^-6-6h7^^^^-7h8^^^^--|
------------------------------------|
------------------------------------|
------------------------------------|
------------------------------------|

----------5h6p5----------5h6p5----------5h6p5----------5h6p5----------------|
-5h6p5h7p5------5h6p5h7p5------5h6p5h7p5------5h6p5h7p5------5h6p5h7p5-5\-/-|
----------------------------------------------------------------------------|
----------------------------------------------------------------------------|
----------------------------------------------------------------------------|
----------------------------------------------------------------------------|

----------7h8p7----------7h8p7----------7h8p7----------7h8p7----------------|
-7h8p7h9p7------7h8p7h9p7------7h8p7h9p7------7h8p7h9p7------7h8p7h9p7-7\-/-|
----------------------------------------------------------------------------|
----------------------------------------------------------------------------|
----------------------------------------------------------------------------|
----------------------------------------------------------------------------|

-11-8-11-10-8-9-5----------------------------12-13-15-17-20~~~~~-|
------------------11-8-11-10-8-9-11-13-14p11---------------------|
-----------------------------------------------------------------|
-----------------------------------------------------------------|
-----------------------------------------------------------------|
-----------------------------------------------------------------|
Tap to rate this tab
 
# A B C D E F G H I J K L M N O P Q R S T U V W X Y Z