Song name
# A B C D E F G H I J K L M N O P Q R S T U V W X Y Z

Misc Unsigned Bands - Informal Blues - Strong Winds tab

Band:Informal Blues
Song:strong winds

    -this song is an original by the informal blues combo. Its pretty niiice
                            myspace.com/informalblues
*CHORDS*
G:355233
C:3555XX
D:5777XX


Bass intro(repeats throughout song)
*SLAP*
G:-----------------------|
D:--------5--------------|
A:-----------2--3--4--5--|*repeat 4x*
E:--3--3-----------------|

G:--------5--------------|
D:-----------2--3--4--5--|
A:--3--3-----------------|*repeat 2x*
E:-----------------------|

G:-----------------------|
D:--------5--------------|
A:-----------2--3--4--5--|*repeat 2x*          Thaaaaaaan....
E:--3--3-----------------|

G:-------7-----------7------------5-------------5--------------------------|
D:----------------------------------------------------------5--------------|
A:--5--5----5--5--5----5----3--3----3--3--3--3----3------------2--3--4--5--|
E:-----------------------------------------------------3--3----------------|

-----------------------|
-----------------------|
--5--5--5--5--3--2--0--|*repeat from top*
-----------------------|

Guitar (into chord)
*MUTE*
E:--1--1--1--1--|
B:--0--0--0--0--|
G:--0--0--0--0--|
D:--------------|
A:--------------|
E:--------------|

Guitar Chords throught song
G,G,G,G,C,C,G,G,D,C,G,D, *repeat*

-guitar solo will be put up in due time...
Tap to rate this tab
# A B C D E F G H I J K L M N O P Q R S T U V W X Y Z