Song name
# A B C D E F G H I J K L M N O P Q R S T U V W X Y Z

Misc Unsigned Bands - Los Cuates De Sinaloa - El Manisero tab

                       F#
e |--------------------2---------|
B |-----------2-2---2--2---------|
G |-----1-3-4-----4----3---------|
D |-4-4--------------------------|
A |------------------------------|
E |------------------------------|
                       F#
e |--------------------2---------|
B |-----------2-2---2--2---------|
G |-----1-3-4-----4----3---------|
D |-4-4--------------------------|
A |------------------------------|
E |------------------------------|
Tap to rate this tab
 
# A B C D E F G H I J K L M N O P Q R S T U V W X Y Z