Song name
# A B C D E F G H I J K L M N O P Q R S T U V W X Y Z

Misc Unsigned Bands - Infinity - Point Of No End tab

Tuning: Drop D (Tool, Killswitch engaged, Lamb of God, Slipknot)
Symbols:
^: Bend string
<->: Palm mute this area
{}: Gently touch strings(finger mute) in this area
*:Hammer on
**:Pull off
_>:Slide to

___Intro____
E----------------------------------|
B----------------------------------|
G----------------------------------|
D----------------------------------|
A----------------------------------|
D----<00-1-00-3-00-1-00>-12-12^----| __________6X_________

(After 6th time, hold 12 bend for a count of 5)

Chorus(Riff 1)_________
E----------------------------|
B----------------------------|
G----------------------------|
D----------------------------|
A----00---00---00---00-------|
D----00-1-00-3-00-1-00-12^---|
                             ]Repeat these two lines 7x
E----------------------------|
B----------------------------|
G----------------------------|
D----------------------------|
A-00---00---00---00----------|
D-00-1-00-3-00-1-00-11_>13---|

(After 7th time, play this riff...)

___Riff 2_____
E---------------------------|
B---------------------------|
G---------------------------|
D---------------------------| ]Play this rif 3x, then hold the 12 bend for a
A-00000---------------------|      count of 5
D-00000-17-15-12^-----------|


Well thats all for now but i will soon post the verse to this song.
Tap to rate this tab
# A B C D E F G H I J K L M N O P Q R S T U V W X Y Z