Song name
# A B C D E F G H I J K L M N O P Q R S T U V W X Y Z

Misc Unsigned Bands - Dualshock - Gay And Proud tab

INTRO/VERSE 
e|----------2-------|----------5-------|
B|------------2-----|------------2-----|
G|-----4--------2---|--------------2---|
D|---4---4--------2-|-----5----------2-|
A|-2----------------|---5---5----------|
E|------------------|-3----------------|

CHORUS 
e|-----------------|----------------|-----------------|----------------|
B|-----------------|----------------|-----------------|----------------|
G|-------------4---|------------4---|-------------4---|-------------4--|
D|-----5---------5-|-----5--------5-|-----5---------5-|-----5---------5|
A|-2-2---2-2-2-----|-3-3---3-3-3----|-----------------|----------------|
E|-----------------|----------------|-3-3---3-3-3-----|-2-2---2-2-2----|

LAST CHORUS
e|-------------------|----------------------|------------------|----------|
B|-------------------|----------------------|------------------|----------|
G|-4-------------4---|-4-------------4---44-|-----4--------4---|-44444444-|
D|-5-----5---------5-|-5-----5---------5-55-|-----5----------5-|-55555555-|
A|-2-2-2---2-2-2-----|-3-3-3---3-3-3-----33-|-----X------------|-XXXXXXXX-|
E|-------------------|----------------------|-3-3-3--3-3-3-----|-22222222-|

OUTRO
e|-7------------------------------------------------------------|
B|---8-7--------------------------------------------------------|
G|-------7-7h9-9-11-12-11-14-12-------------------1-------------|
D|------------------------------14-12-------------2-0-2h3p2-3-5-|
A|------------------------------------14-12-\-----2-------------|
E|--------------------------------------------3-0---------------|

e|-----------------------------|
B|-5---------------------------|
G|---4-5-----------------------|
D|-------5-4-------------------|
A|-----------5-4-2--6---4----2-|
E|--------------------4---2----|

e|-------------------------------5-----------------|
B|---4-5/7----0--------4-5/7-------5---------------|
G|-4------------0----4---------------5--------4----|
D|-4--------5-----0--4---------5-------7------4--5~|
A|-2--------5--------2---------5---------7-5--2--5~|
E|----------3------------------3-----------------3~|
Tap to rate this tab
# A B C D E F G H I J K L M N O P Q R S T U V W X Y Z