Song name
# A B C D E F G H I J K L M N O P Q R S T U V W X Y Z

Misc Unsigned Bands - Bankrupt - No Anything tab

Help us improve GuitareTab! Take a short survey!
Band: Bankrupt
Song: No Anything
Tabbist Robin Wakerell

Intro
e|----------------------------------|
B|-3-3-3-3--------------------------|
G|-2-2-2-2------2-2-2-2-2-----------|
D|-0-0-0-0-3-3-3232-2-2222-2-4-4h54-|
A|-0-0-0-0-3-3-3030-0-0303-3-5------|
D|-0-0-0-0-3-3-3-3------------------|

Verse
e|----------------------------------|
B|----------------------------------|
G|---------------2-2-2-2--2---------|
D|-0-0-0-0-3-3-3-232-2-2-222-2-4-4--|
A|-0-0-0-0-3-3-3-030-0-0-303-3-5-5--|
D|-0-0-0-0-3-3-3--3-----------------|
P.M. . . . . . . ... . . . . . . .

Bridge 1
e|-----------------333333311110000--|
B|-3-3-3-----------333333333333333--|
G|-2-2-2-----------000000000000000--|
D|-0-0-0---3-3-3--------------------|
A|-0-0-0---3-3-3--------------------|
D|-0-0-0---3-3-3--------------------|

Chorus
e|----------------------------------|
B|-3-3-3-3--------------------------|
G|-2-2-2-2---------4-4-44445555-2-2-|
D|-0-0-0-0-3-3-3-3-4-4-44445555-2-2-|
A|-0-0-0-0-3-3-3-3-2-2-22223333-0-0-|
D|-0-0-0-0-3-3-3-3------------------|

e|----------------------------------|
B|----------------------------------|
G|-7-7-7-7---------4-4-44447777-5-5-|
D|-7-7-7-7-3-3-3-3-4-4-44447777-5-5-|
A|-5-5-5-5-3-3-3-3-2-2-22225555-3-3-|
D|-0-0-0-0-3-3-3-3------------------|

Bridge 2
e|-----------------333333--11--00---|
B|-3-3-3-----------333333--33--33---|
G|-2-2-2-----------000000--00--00---|
D|-0-0-0---3-3-3--------------------|
A|-0-0-0---3-3-3--------------------|
D|-0-0-0---3-3-3--------------------|

End Chord
e|----|
B|-3b-|
G|-2b-|
D|-0--|
A|-0--|
D|-0--|

Song Order: Intro x2
		Verse x4
		Bridge 1 x2
		Chorus x2
		Bridge 2 x2
		Verse x2
		Bridge 1 x2
		Chorus x2
		Bridge 2 x2

Legend:   h - Hammer on
	    p - pull off
	    b - bend
	  P.M - palm mute
Related for Bankrupt - No Anything tab