Song name
# A B C D E F G H I J K L M N O P Q R S T U V W X Y Z

Misc Unsigned Bands - Act Of Venegence - Keep Your Friends Close tab

Part I (relatively clean)
Eb|------------------------------------|
Bb|------------------------------------|
Gb|-------------------------------7----|
Db|------4-5-5h7--875-875-4b~--8----8--|
Ab|-(5)--------------------------------|
Db|--0---------------------------------|

Part I (relatively clean)
Eb|------------------------------------|
Bb|------------------------------------|
Gb|-------------------------------7----|
Db|------4-5-5h7--875-875-4b~--8----8--|
Ab|-(5)--------------------------------|
Db|--0---------------------------------|
Part I (relatively clean)
Eb|------------------------------------|
Bb|------------------------------------|
Gb|-------------------------------7----|
Db|------4-5-5h7--875-875-4b~--8----8--|
Ab|-(5)--------------------------------|
Db|--0---------------------------------|

Part I (relatively clean)
Eb|------------------------------------|
Bb|------------------------------------|
Gb|-------------------------------7----|
Db|------4-5-5h7--875-875-4b~--8----8--|
Ab|-(5)--------------------------------|
Db|--0---------------------------------|


www.intheactofvenegence.com


Tap to rate this tab
# A B C D E F G H I J K L M N O P Q R S T U V W X Y Z