Song name
# A B C D E F G H I J K L M N O P Q R S T U V W X Y Z

Misc Unsigned Bands - No Veto - Henry1 tab

Intro
e--9--7--5--3---|
B-9--7--5--3----|
G---------------|x3
D---------------|
A---------------|
E---------------|

e--9--7--5--3~~-|
B-9--7--5---3~~-|~: Hold Note
G---------------|
D---------------|
A---------------|
E---------------|

Verse
e-----------------------------------|
B-----------------------------------|
G-99--77--55--7~77---99--77--55--7~~|
D-77--55--33--5~55---77--55--33--5~~|x4
A-----------------------------------|
E-----------------------------------|

Chorus
e--------------------------------------|
B--------------------------------------|
G--------------------------------------|x2
D--------------------------------------|
A-99999999-11-7-99~-99999999-11-7-11\9-|
E-77777777-9--5-77~-77777777-9--5--9\7-|

Thats all i've got

Henry
Tap to rate this tab
# A B C D E F G H I J K L M N O P Q R S T U V W X Y Z