Song name
# A B C D E F G H I J K L M N O P Q R S T U V W X Y Z

Misc Unsigned Bands - Fairhill Rise - Forever Is Never tab

Forever is Never - Fairhill rise

INTRO

C#||---------------------------------------------|
G#||---------------------------------------------|
E ||---------------------------------------------|
B ||---------------------------------------------|
F#||-0-0-000-0---------------0-0-000-0-----------|
B ||-0-0-000-0---------------0-0-000-0-----------| 
     * * *** *               * * *** *
C#||---------------------------------------------|
G#||---------------------------------------------|
E ||---------------------------------------------|
B ||---------------------------------------------|
F#||-0-0-000-0---------------0-0-000-0-----------|
B ||-0-0-000-0----0-0-0-0----0-0-000-0----0-0-0-0|
     * * *** *    B B B B    * * *** *    B B B B

C#||---------------------------------------------|
G#||---------------------------------------------|
E ||---------------------------------------------|
B ||---------------------------------------------|
F#||-0-0-000-0---------------0-0-000-0-----------|
B ||-0-0-000-0----0-0-0-0----0-0-000-0----////---|    DING!
     * * *** *    B B B B    * * *** *    

RIFF 1

C#||------------------------------------------------|
G#||------------------------------------------------|
E ||------------------------------------------------|
B ||------------------------------------------------|
F#||--3530--000--1310--000--1310--000--3h5p0-5h7p0--|
B ||--3530--000--1310--000--1310--000--3h5p0-5h7p0--|
            ***        ***        ***
C#||-----------------------------------|
G#||-----------------------------------|
E ||-----------------------------------|
B ||-----------------------------------|
F#||--3530--000--1310--000--1310--000--|
B ||--3530--000--1310--000--1310--000--|
           ***        ***        ***
C#||---------------------------------------------------------------|
G#||---------------------------------------------------------------|
E ||---------------------------------------------------------------|
B ||---------------------------------------------------------------|
F#||--3h5p3h5p3h5p3h5----------------5h7p5h7p5h7p5h7---------------|
B ||-----------------3h5p3h5p3h5p3h5----------------5h7p5h7p5h7p5h7|

C#||----------------------------------------------|
G#||----------------------------------------------|
E ||----------------------------------------------|
B ||----------------------------------------------|
F#||--3530--000--1310--000--1310--000--5310-5310--|
B ||--3530--000--1310--000--1310--000--5310-5310--|
            ***        ***        ***  **** ****
C#||----------------------------------------------------------|
G#||----------------------------------------------------------|
E ||----------------------------------------------------------|
B ||----------------------------------------------------------|
F#||--3530--000--1310--000--1310--000--5310-5310-5310---------|
B ||--3530--000--1310--000--1310--000--5310-5310-5310--12s1---|
            ***        ***        ***  **** **** ****
RIFF 2
                                            
C#||--------------------------------------|
G#||--------------------------------------|
E ||--------------------------------------|
B ||--------------------------------------|
F#||-------5-----7-----3-----3-----3h4----|
B ||--0-0----0-0---0-0---0-0---0-0--------|

C#||--------------------------------------|
G#||--------------------------------------|
E ||--------------------------------------|
B ||--------------------------------------|
F#||------5-----3-----7-----9-----10h12---|
B ||--0-0---0-0---0-0---0-0---0-0---------|

C#||--------------------------------------|
G#||--------------------------------------|
E ||--------------------------------------|
B ||--------------------------------------|
F#||-------5-----7-----3-----3-----3h4----|
B ||--0-0----0-0---0-0---0-0---0-0--------|

C#||--------------------------------------|
G#||--------------------------------------|
E ||--------------------------------------|
B ||--------------------------------------|
F#||------5-----3-----7-----9-----10h12---|
B ||--0-0---0-0---0-0---0-0---0-0---------|

Breakdown
Tap to rate this tab
 
# A B C D E F G H I J K L M N O P Q R S T U V W X Y Z