Song name
# A B C D E F G H I J K L M N O P Q R S T U V W X Y Z

Misc Unsigned Bands - The Red Cloud Agency - The Martyrs Curse tab

-------------------------------------------------------------------------------
			     The Martyrs Curse - Band Name
-------------------------------------------------------------------------------
Tabbed by:MaximumJohnson
Email:

Tuning:
Guitar 1
intro
e|-------------------------------------------------------------------------------------|
B|-------------------------------------------------------------------------------------|
G|-------------------------------------------------------------------------------------|
D|---------------------8--7-12--11--12-15--14-11-12,,,12,,,11,,,12,,,8,,,8,,,7,,,------|
A|----------8--7--5-4------------------------------------------------------------8,,,--|
E|000-000-\--00-00-0-00-00-0--00--00--0--00--0-----------------------------------------|

e|---------------------------------------------------------------------------|
B|---------------------------------------------------------------------------|
G|---------------------------------------------------------------------------|
D|---------------------------------------------------------------------------|
A|4,,,4,,,5,,,5,,,1,,,1,,,1,,,------------5h8-4h7----5h8-4h7---------5h8-4h7-|
E|-----------------------------4---1---000---0---0000---0---000000000---0----|
verse
e|---------------------------------------------------------------------------|
B|---------------------------------------------------------------------------|
G|---------------------------------------------------------------------------|
D|----8-7-8-12-11-----------------------------------------8-7-8-12-11--------|
A|------------------5h8-4h7----5h8-4h7---------5h8-4h7-----------------------|
E|0000-----------000---0---0000---0---000000000---0---0000-------------------|
                ^
e|---------------------------------------------------------------------------|
B|---------------------------------------------------------------------------|
G|---------------------------------------------------------------------------|
D|-----------------------------------------8-7-8-----------------------------|
A|---5h8-4h7----5h8-4h7---------5h8-4h7----------4-5-------------------------|
E|000---0---0000---0---000000000---0---0000----------------------------------|

e|---------------------------------------------------------------------------|
B|---------------------------------------------------------------------------|
G|---------------------------------------------------------------------------|
D|-----------------------------------------8-7-8-12-11-----------------------|
A|---5h8-4h7----5h8-4h7---------5h8-4h7--------------------------------------|
E|000---0---0000---0---000000000---0---0000----------------------------------|
chorus
e|---------------------------------------------------------|
B|---10----10--10--9-----9---9---10----10----10------------|
G|---------------------------------------------------------|
D|---7-----7---7---6-----6---6---7-----7-----7-2--2--3--3--|
A|---8-----8---8---7-----7---7---8-----8-----8-4--4--5--5--|
E|000---000-000-000---000-000-000---000---000---00-00-00---|

e|---------------------------------------------------------|
B|---10----10--10--9-----9---9---10----10----10------------|
G|---------------------------------------------------------|
D|---7-----7---7---6-----6---6---7-----7-----7-2--2--3--3--|
A|---8-----8---8---7-----7---7---8-----8-----8-4--4--5--5--|
E|000---000-000-000---000-000-000---000---000---00-00-00---|



| /  slide up
| \  slide down
| h  hammer-on
| p  pull-off
| ~  vibrato
| +  harmonic
| x  Mute note
===============================================================================
Tap to rate this tab
 
# A B C D E F G H I J K L M N O P Q R S T U V W X Y Z