Guitaretab - guitar tabs
Song name
# A B C D E F G H I J K L M N O P Q R S T U V W X Y Z

Misc Unsigned Bands - Exsurant - Rise Above tab

I finally got round to tabbing the whole song.

Tuning: Dropped C (CGCFAD)

Key:
h = hammer on
P = pull off
* = pinch harmonic
. = palm mute

Intro:
Clean
D|-----------------------------------------------------------------|
A|-----------------------------------------------------------------|
F|-----------6---------------6---------------6---------------4-----|x2
C|-------4-----4---------4-----4---------0-----0---------2-----2---|
G|---4-----4-----4---4-----4-----4---0-----0-----0---2-----2-----2-|
C|-4---4-----------4---4-----------0---0-----------2---2-----------|

Distorted
D|---------------------------------------------------------------------------------|
A|---------------------------------------------------------------------------------|
F|-6-6-6-6-6-6-6-6-6-6-6-6-6-6-6-6-6-6-6-6-6-6-6-6-6-6-6-6-6-6-4-4-4-4-4-4-4-4-4-4-|x2
C|-4-4-4-4-4-4-4-4-4-4-4-4-4-4-4-4-4-4-4-4-0-0-0-0-0-0-0-0-0-0-2-2-2-2-2-2-2-2-2-2-|
G|-4-4-4-4-4-4-4-4-4-4-4-4-4-4-4-4-4-4-4-4-0-0-0-0-0-0-0-0-0-0-2-2-2-2-2-2-2-2-2-2-|
C|-4-4-4-4-4-4-4-4-4-4-4-4-4-4-4-4-4-4-4-4-0-0-0-0-0-0-0-0-0-0-2-2-2-2-2-2-2-2-2-2-|
[ Tab from: http://www.guitaretab.com/m/misc-unsigned-bands/97688.html ]
Verse:
D|-------------------------------------------------------------|
A|-------------------------------------------------------------|
F|-------------------------------------------------------------|
C|----------------------------2h4------------------------------|
G|-4-----4-----4-----4-----4h5----0-----0-----0-----0-----2h4--|
C|-4-4-4-4-4-4-4-4-4-4-4-4--------0-0-0-0-0-0-0-0-0-0-0-0----4-|
     . .   . .   . .   . .          . .   . .   . .   . .       x2
D|-------------------------------------------------------------|
A|-------------------------------------------------------------|
F|-----------------------------------------------------------6-|
C|----------------------------2h4-------------------------6h7--|
G|-4-----4-----4-----4-----4h5----0-----0-----0-----0----------|
C|-4-4-4-4-4-4-4-4-4-4-4-4--------0-0-0-0-0-0-0-0-0-0-0-0------|
     . .   . .   . .   . .          . .   . .   . .   . .
Pre-Chorus:
D|----------------------------------------------|
A|----------------------------------------------|
F|----------------------------------------------|
C|-------------2---4---4------------------------|
G|-----4---5-----------------2---4---5---4---5*-|
C|-4-4---4---4---4---4---0-0---0---0---0---0----|
   . .   .   .   .   .   . .   .   .   .   .
Chorus:
D|---------------------------------------------------------------------------------|
A|---------------------------------------------------------------------------------|
F|-6-6-6-6-6-6-6-6-6-6-6-6-6-6-6-6-6-6-6-6-6-6-6-6-6-6-6-6-6-6-4-4-4-4-4-4-4-4-4-4-|x2
C|-4-4-4-4-4-4-4-4-4-4-4-4-4-4-4-4-4-4-4-4-0-0-0-0-0-0-0-0-0-0-2-2-2-2-2-2-2-2-2-2-|
G|-4-4-4-4-4-4-4-4-4-4-4-4-4-4-4-4-4-4-4-4-0-0-0-0-0-0-0-0-0-0-2-2-2-2-2-2-2-2-2-2-|
C|-4-4-4-4-4-4-4-4-4-4-4-4-4-4-4-4-4-4-4-4-0-0-0-0-0-0-0-0-0-0-2-2-2-2-2-2-2-2-2-2-|

Bridge:
D|------------------------------------------------------------|
A|------------------------------------------------------------|
F|------------------------------------------------------------|x2
C|------------------------------------------------------------|
G|-------------3-------------3-------------3-------------6-5*-|
C|-0-0-0-0-0-0-3-0-0-0-0-0-0-6-0-0-0-0-0-0-3-0-0-0-0-0-0-3----|
   . . . . . .   . . . . . .   . . . . . .   . . . . . .
Clean Section
D|-----------------------------------------------------------------|
A|-----------------------------------------------------------------|
F|-----------6---------------6---------------6---------------4-----|
C|-------4-----4---------4-----4---------0-----0---------2-----2---|
G|---4-----4-----4---4-----4-----4---0-----0-----0---2-----2-----2-|
C|-4---4-----------4---4-----------0---0-----------2---2-----------|

D|------------------------------------------------------------------|
A|------------------------------------------------------------------|
F|-----------6---------------6---------------6---------------4------|
C|-------4-----4---------4-----4---------0-----0---------2-----2----|
G|---4-----4-----4---4-----4-----4---0-----0-----0---2-----2-----5*-|
C|-4---4-----------4---4-----------0---0-----------2---2------------|

Last Chorus:
Guitar 1:
D|---------------------------------------------------------------------------------|
A|---------------------------------------------------------------------------------|
F|-6-6-6-6-6-6-6-6-6-6-6-6-6-6-6-6-6-6-6-6-6-6-6-6-6-6-6-6-6-6-4-4-4-4-4-4-4-4-4-4-|x4
C|-4-4-4-4-4-4-4-4-4-4-4-4-4-4-4-4-4-4-4-4-0-0-0-0-0-0-0-0-0-0-2-2-2-2-2-2-2-2-2-2-|
G|-4-4-4-4-4-4-4-4-4-4-4-4-4-4-4-4-4-4-4-4-0-0-0-0-0-0-0-0-0-0-2-2-2-2-2-2-2-2-2-2-|
C|-4-4-4-4-4-4-4-4-4-4-4-4-4-4-4-4-4-4-4-4-0-0-0-0-0-0-0-0-0-0-2-2-2-2-2-2-2-2-2-2-|

Guitar 2:
D|-------------------------------------------------------------------------------------------------|
A|-------------------------------------------------------------------------------------------------|
F|-------------------------------------------------------------------------------------------------|x4
C|-------------------------------------------------------------------------------------------------|
G|-4-4-4-4-4-4-4-4-4-4-4-4-5-5-5-5-5-5-4-4-4-4-4-4-2-2-2-2-2-2-4-4-4-4-4-4-5-5-5-5-5-5-4-4-4-4-4-4-|
C|-------------------------------------------------------------------------------------------------|

Related for Exsurant - Rise Above tab