Song name
# A B C D E F G H I J K L M N O P Q R S T U V W X Y Z

Misc Unsigned Bands - Deathmask - Bitches Of Eastwick tab

Song Title: Bitches Of Eastwick
Band: DEATHMASK
Written by: Logmar Dick Tittles, Anders Titsbottom, and Anus
Lemmings
Website: http://www.myspace.com/deathmask666
Tabbed by: Logmar Dick Tittles

Notes from the artist: You can hear our demo recording at our
myspace page. This song is pretty fast and when we play it live we
almost play it twice as fast.Its just good simple fast song in my
opinion. While the structure is simple i think there is enough
juiciness in some of the riffage to warrant a submission here.

The tuning is: DADGBE

Note: * is the symbol that I am using for Speed Picking the fretted notes
      ~ is the symbol for vibrato
      . is the sybol I use for Palm Muting
        I think everything is relatively deductive in this TAB

Drum fill intro:
-----------------------------|
-----------------------------|
-----------------------------|
-----------------------------|
-----------------------------|
-----------------------------|

Verse Riff A
-------------------------------------------------------|
-------------------------------------------------------|
-------------------------------------------------------|
---------------------------------------------------6---|
-------7-5-8-8------8-7-10-10------8-7-5-------7-5-4---|
-0-0-0--------0-0-0-----------0-0-0------0-0-0---------|
 . . .        . . .           . . .      . . .


-----------------------------------------------------------------|
-----------------------------------------------------------------|
-------------------------------------*-*-*-----------------------|
-------------------------------------8-7-5----*-*-*-*-*-*--------|
-------7-5-8-8-------8-7-10-10--*-*-*----------8-7-5-7-5-4-------|
-0-0-0---------0-0-0------------8-7-5----------------------------|
 . . .         . . .
End Verse Riff A
Play 2x

Pre-Chorus Riff B
--------------------------------------------------------------------|
--------------------------------------------------------------------|
--------------------------------------------------------------------|
--------------------------------------------------------------------|
-------8---8---8-------7---7---7-------10---10---10-------8---8---7-|
-0-0-0---0---0---0-0-0---0---0---8-8-8----8----8----7-7-7---7---7---|
 . . .   .   .   . . .   .   .   . . .    .    .    . . .   .   .

-------------------------------|
-------------------------------|
-------------------------------|
----*-*-*-*--*-*-*---*-*-*-----|
-*--8-7-8-10-8-7-8-*-8-7-8-----|
-8-----------------7-----------|
End Riff B

Chorus Riff C
---------------------------------------------------------|
---------------------------------------------------------|
---------------------------------------------------------|
------------------------------------7------p-------------|
-0-0-0--0-0--0-0-0--0-0--0-0-0--0-0-8-0-0-8-7---7~~~7~~~-|
-0-0-0--0-0--0-0-0--0-0--0-0-0--0-0---0-0-----8----------|
 . . .  . .  . . .  . .  . . .  . .   . .

------------------------------------------------------|
------------------------------------------------------|
------------------------------------------------------|
------------5-----7-----8-----------------------------|
------------7-------5-----7---------------------------|
-0-0-0--0-0---0-0-----7-----8~~~----------------------|
 . . .  . .   . . . .   . .

---------------------------------------------------------|
---------------------------------------------------------|
---------------------------------------------------------|
------------------------------------7------p-------------|
-0-0-0--0-0--0-0-0--0-0--0-0-0--0-0-8-0-0-8-7---7~~~7~~~-|
-0-0-0--0-0--0-0-0--0-0--0-0-0--0-0---0-0-----8----------|
 . . .  . .  . . .  . .  . . .  . .   . .


--------------------------------------------------------|
--------------------------------------------------------|
--------------------------------------------------------|
------------5-----7-----8-----5-----2-------------------|
------------7-------5-----7-----4-----1-----------------|
-0-0-0--0-0---0-0-----7-----8-----5-----2---------------|
 . . .  . .   . . . . . . . . . . . . . .

Most Awesome Drum fill EVER Pre-Verse End Riff C
--------------------------------------------------------|
--------------------------------------------------------|
--------------------------------------------------------|
--------------------------------------------------------|
--------------------------------------------------------|
--------------------------------------------------------|


Repeat Riffs A,B,C As noted above Begin Riff D(evastating)
----------------------------------------------------------|
----------------------------------------------------------|
----------------------------------------------------------|
----------------------------------------------------------|
----------1--0-----------1-0-----------1-0--------------7-|
-1-1-1-0--1--0--1-1-3-0--1-0--1-1-1-0--1-0--4-3-4-6-4-6-7-|
 . . . .        . . . .       . . . .       . . . . . .

----------------------------------------------------------|
----------------------------------------------------------|
-------------------------------------------------10--9--7-|
----------------------------------------------------------|
----------1--0-----------1-0-----------1-0--------8--7--4-|
-1-1-1-0--1--0--1-1-3-0--1-0--1-1-1-0--1-0--0-0-----------|
 . . . .        . . . .       . . . .       . .
End Riff D Repeat 3x

Repeat Riffs B through C

End Song

Writers note:
I am Logmar Dick Tittles The Main Rhythm Guitarist and riff creator
within the band DEATHMASK. This song is among one of my favorites
to play live because while it is simple, the energy that i feel from
playing this is amazing. Also as of 10/22/07(my birthday) I am a new
member here at U.G so if this isn't a good tab of the music I play
then I apologize for being such a goddamn newbie. And i honestly know
nothing about the time signatures of the songs we play. Once again if
you are interested in what the song sounds like go to
http://www.myspace.com/deathmask666 and listen to the song.

Also as a disclaimer this piece of music is copyrighted so don't rip
it off...Besides why would you want to copy someone anyways? Music
is about individuality and if you don't feel the that the right
to be a productive force of creation within the realm of music is
important then you don't deserve anything.
Tap to rate this tab
 
# A B C D E F G H I J K L M N O P Q R S T U V W X Y Z