Song name
# A B C D E F G H I J K L M N O P Q R S T U V W X Y Z

Misc Unsigned Bands - Koje - Rakkauden Valo tab

A finnish rock song "Rakkauden Valo" by a finnish group from Masku called Koje.

Standart tuning: EADGbe

 Verse: 					           Pre Chorus:

    D             Fm#           G             A           X3    A7
|---2--2--2-2-2---2--2--2-2-2---3--3--3-3-3---0--0--0-0-0-|-0-0-0-0-0-0-|
|-x-3--3--3-3-3-x-2--2--2-2-2---3--3--3-3-3---2--2--2-2-2-|-2-2-2-2-2-2-|
|-x-2--2--2-2-2-x-2--2--2-2-2-x-0--0--0-0-0-x-2--2--2-2-2-|-2-2-1-1-1-1-|
|-x-0--0--0-0-0-x-4--4--4-4-4-x-0--0--0-0-0-x-2--2--2-2-2-|-2-2-2-2-2-2-|
|-----------------4--4--4-4-4-x-2--2--2-2-2-x-0--0--0-0-0-|-0-0-0-0-0-0-|
|-----------------2--2--2-2-2-x-3--3--3-3-3---------------|-------------|
       Koti-     -aa mun        si nun-      -näin          -saa-aa-a-aa


 Chorus:                                                  Break:

    B5            G             D             A           X4
|-----------------3--3--3-3-3---2--2--2-2-2---0--0--0-0-0-|-0-|
|-----------------3--3--3-3-3-x-3--3--3-3-3-x-2--2--2-2-2-|-2-|
|-x-4--4--4-4-4-x-0--0--0-0-0-x-2--2--2-2-2-x-2--2--2-2-2-|-2-|
|-x-4--4--4-4-4-x-0--0--0-0-0-x-0--0--0-0-0-x-2--2--2-2-2-|-2-|
|-x-2--2--2-2-2-x-2--2--2-2-2-x---------------0--0--0-0-0-|-0-|
|-----------------3--3--3-3-3-----------------------------|---|

       Tai-      -valo-        -taa-  -tain   tarkoit-



Verse 1:

koti maanantaina aamun
sinun kannatti näin
kävelin puuta päin 
kun sinua katsomaan jäin
aave aurinko nousta
ja rakkaus sykkii rinnassa


Chorus:

taivaalla valo vilkuttaa
ja se jotain tarkoittaa
voisin viedä sinut rakkain
valoa katsomaan
valo rinnallasi kalpenee
koko taivaan ranta valkenee
taivaalla valo vilkuttaa
ja se jotain tarkoittaa
Tap to rate this tab
# A B C D E F G H I J K L M N O P Q R S T U V W X Y Z