Song name
# A B C D E F G H I J K L M N O P Q R S T U V W X Y Z

Misc Unsigned Bands - Classmate 67 - Pentagram Song tab

Intro:
|------------------------|
|------------------------|
|------------------------|
|------------------------|
|-6-6-6---6-6-6--7-7-1-1-|
|-6-6-6---6-6-6--7-7-1-1-|

                          2x

|------------------------|
|------------------------|
|------------------------|
|------------------------|
|-6-6-6------------------|
|-6-6-6------------------|


|------------------------|
|------------------------|
|------------------------|
|------------------------|
|------------------------|
|--3-2-0----3-2-0--------|

                          2x

|------------------------|
|------------------------|
|------------------------|
|------------------------|
|------------------------|
|-3-2-0-3-2-0-3-2--3-2-0-|

Song Thinger:
|------------------------|
|------------------------|
|------------------------|
|------------------------|
|-3-2-0--3-2-0--3-2-0-2-3|
|-3-2-0--3-2-0--3-2-0-2-3|

                          2x

|------------------------|
|------------------------|
|------------------------|
|------------------------|
|-5--0-2-3-5-------------|
|-5--0-2-3-5-------------|

Other Thinger:
|------------------------|
|------------------------|
|------------------------|
|------------------------|
|--1-1--0-0---1-1--0-0---|
|--1-1--0-0---1-1--0-0---|

                          2x

|------------------------|
|------------------------|
|------------------------|
|------------------------|
|--0-2-3-5---------------|
|--0-2-3-5---------------|

End:
|------------------------|
|------------------------|
|------------------------|
|------------------------|
|-6-6-6---6-6-6----------|
|-6-6-6---6-6-6----------|



Intro
Song Thinger
Other Thinger
Song Thinger 
Other Thinger
End
 
That's It!!!! No lyrics yet...pretty lame. yep.
any questions or comments 411 or 911 me at daddevoe@yahoo.com 

D4VEY A.D.
GUITARIST/VOCALS/FOUNDER OF C67

CLASSMATE 67
          67
          67





Tap to rate this tab
# A B C D E F G H I J K L M N O P Q R S T U V W X Y Z