Song name
# A B C D E F G H I J K L M N O P Q R S T U V W X Y Z

Misc Unsigned Bands - Theres Always Tomorrow - Impossible Dream tab

This is one of my old bands songs.
I came up withthis song so this tab is 100% correct!

Song - Impossible Dream
Band - Theres Always Tommorow
Album - Demo EP
Tabber - Carl Russell


Intro (Play 4 times)

 Guitar 1
D----|-------------|----|---------------------------------|
A----|-------------|----|---------------------------------|
F----|-------------|----|---------------------------------|
C-0--|-3-5-3-1-3-1-|-0--|---------------------------------|
G-0--|-3-5-3-1-3-1-|-0--|---5---4---5---7---8---5---7---4-|
C-0--|-3-5-3-1-3-1-|-0--|-0---0---0---0---0---0---0---0---|

 Guitar 2
D-----|------|----|----------------------------------|
A-----|------|----|----------------------------------|
F-/10-|-10-8-|-10-|----------------------------------|
C-x---|-x----|-x--|--------------------7-------------|
G-/8--|-8--6-|-8--|---8---7---8---10-------8---10--7-|
C-----|------|----|-0---0---0---0----0---0---0---0---|

Verse (Play once)

 Guitar 1
D-------------------|-------------------|
A-------------------|-------------------|
F-------------------|-------------------| Play this riff twice
C-0-----------------|-0-----------------|
G-0-0-0-0-0-8-5-7-4-|-0-0-0-0-0-8-5-7-8-|
C-0-0-0-0-0---------|-0-0-0-0-0---------|

D----------------|---------------------|
A----------------|---------------------|
F----------------|---------------------| Repeat the second bar of this
C-0--------------|---------------------| riff thre times
G-0-00-0-00-0-00-|-00-0-00-0-00-0-00-0-|
C-0-00-0-00-0-00-|-00-0-00-0-00-0-00-0-|

D-------------------|-------------------|
A-------------------|-------------------|
F-------------------|-------------------| Play this riff twice
C-0-----------------|-0-----------------|
G-0-0-0-0-0-8-5-7-4-|-0-0-0-0-0-8-5-7-8-|
C-0-0-0-0-0---------|-0-0-0-0-0---------|

 Guitar 2
D--------------------|--------------------|
A--------------------|--------------------|
F--------------------|--------------------| Play this riff twice
C-0---------7--------|-0---------7------7-|
G-0-0-0-0-0---8-10-7-|-0-0-0-0-0---8-10---|
C-0-0-0-0-0----------|-0-0-0-0-0----------|

D----------------|---------------------|
A----------------|---------------------|
F----------------|---------------------| Repeat the second bar of this
C-0--------------|---------------------| riff thre times
G-0-00-0-00-0-00-|-00-0-00-0-00-0-00-0-|
C-0-00-0-00-0-00-|-00-0-00-0-00-0-00-0-|

D--------------------|--------------------|
A--------------------|--------------------|
F--------------------|--------------------| Play this riff twice
C-0---------7--------|-0---------7------7-|
G-0-0-0-0-0---8-10-7-|-0-0-0-0-0---8-10---|
C-0-0-0-0-0----------|-0-0-0-0-0----------|

Chorus (Play twice)

 Guitar 1
D---------------|---------------|---------------|---------------|
A---------------|---------------|---------------|---------------|
F-7-7-7-7--7-7--|---------------|-3-3-3-3--3-3--|-5-5-5-5--5-5--|
C-7-7-7-7--7-7--|-5-5-5-5--5-5--|-3-3-3-3--3-3--|-5-5-5-5--5-5--|
G-5-5-5-5--5-5--|-5-5-5-5--5-5--|-1-1-1-1--1-1--|-3-3-3-3--3-3--|
C---------------|-5-5-5-5--5-5--|---------------|---------------|

 Guitar 2
D-17-13-------17-13-------|-18-15-------18-15-------|
A-------15----------15----|-------15----------15----|
F----------14----------14-|----------15----------15-|
C-------------------------|-------------------------|
G-------------------------|-------------------------|
C-------------------------|-------------------------|

D-18-13-------18-13-------|-15-12-------15-12-------|
A-------15----------15----|-------13----------13----|
F----------15----------15-|----------12----------12-|
C-------------------------|-------------------------|
G-------------------------|-------------------------|
C-------------------------|-------------------------|

Solo

 Guitar 1

D-------------------|-------------------|
A-------------------|-------------------|
F-------------------|-------------------| Play this riff twice
C-0-----------------|-0-----------------|
G-0-0-0-0-0-8-5-7-4-|-0-0-0-0-0-8-5-7-8-|
C-0-0-0-0-0---------|-0-0-0-0-0---------|

D----------------|---------------------|
A----------------|---------------------|
F----------------|---------------------| Repeat the second bar of this
C-0--------------|---------------------| riff thre times
G-0-00-0-00-0-00-|-00-0-00-0-00-0-00-0-|
C-0-00-0-00-0-00-|-00-0-00-0-00-0-00-0-|

D-------------------|-------------------|
A-------------------|-------------------|
F-------------------|-------------------| Play this riff twice
C-0-----------------|-0-----------------|
G-0-0-0-0-0-8-5-7-4-|-0-0-0-0-0-8-5-7-8-|
C-0-0-0-0-0---------|-0-0-0-0-0---------|

 Guitar 2
D-17-13-----------|----------------13-17br13-------|
A------15---------|-------------15-----------15pbr-|
F---------14-13bv-|----------14--------------------|
C-----------------|----12-15-----------------------|
G-----------------|-12-----------------------------|
C-----------------|--------------------------------|

D-17-18-17-17----17-18-17-17----15-13-12----------17-15-13----------|
A-------------17-------------17----------15-13-12----------17-15-13-|
F-------------------------------------------------------------------|
C-------------------------------------------------------------------|
G-------------------------------------------------------------------|
C-------------------------------------------------------------------|

D-17-15-13----------17-15-13----------------13-15-16bv-|
A----------17-15-13----------------------15------------|
F-------------------------------------14---------------|
C----------------------------------15------------------|
G----------------------------16-17---------------------|
C------------------------------------------------------|

D--------------------------------------------|
A-----------------------------------10-11-13-|
F-----------8s12---------9-10-12-13----------|
C----7-8h10------9-10-12---------------------|
G-10-----------------------------------------|
C--------------------------------------------|

D-10-12-13----------12-13-15----------13-15-16----------15bv-|
A----------12-13-15----------13-15-17----------15-17-18------|
F------------------------------------------------------------|
C------------------------------------------------------------|
G------------------------------------------------------------|
C------------------------------------------------------------|

D-18-17-15----------------------------------------------------------------|
A----------18-17-15----------18-17-15-------------------------------------|
F-------------------18-17-15----------18-17-15-17-15-14-------14-13-12----|
C-------------------------------------------------------15-12----------15-|
G-------------------------------------------------------------------------|
C-------------------------------------------------------------------------|

D--------|
A--------|
F--------|
C-11s12v-|
G--------|
C--------|

Outro
 Guitar 1
Clean sound, plays these chords to a fade.
Ive written them as if the guitars were tuned to dropped d or standard tuning, but 
the guitars are tuned t droppd c so there really 2 semitones lower!

Dm - Bb - F - C   x 4

Dm - Gm - F - Bb  x 4

 Guitar 2
F----|
A----|
D----|
C-0--| Let this ring untill it fades out!
G-0--|
C-0--|

 Song Layout...

Intro
Verse
Chorus
Verse
Chorus
Solo
Chorus
Outro
Tap to rate this tab
# A B C D E F G H I J K L M N O P Q R S T U V W X Y Z