Song name
# A B C D E F G H I J K L M N O P Q R S T U V W X Y Z

Misc Unsigned Bands - Deathrow Saints - Cerberus tab

This is played Pretty fast, practice slow . More updates coming soon.

                             X3
-----------------------------|-------------------------------|
-----------------------------|-------------------------------|
--------------5--------------|-------------------------------|
----7----8---------8-----7~~~|----7----8-------7-8-7-5-------|
-55---55---55---55---55------|-55---55---55---8--------8-7-5-|
-----------------------------|-------------------------------|
                       X2
--------------------------------------------------|
--------------------------------------------------|
--------------------------------------------------|
-7----7-5-7-7----8-7-5-7--------5---7-8-7-5-------|
-5-55-------5-55-------5-55-8-7---8---------8-7-5-|
--------------------------------------------------|
Tap to rate this tab
# A B C D E F G H I J K L M N O P Q R S T U V W X Y Z