Song name
# A B C D E F G H I J K L M N O P Q R S T U V W X Y Z

Misc Unsigned Bands - Los Campesinos - Youmedancing tab

e|---------------------------------------------------------------------------------|
B|---------------------------------------------------------------------------------|
G|---------------------------------------------------------------------------------|
D|11---11/9-9---9/7-7---7/2-2/4-4/2-2/11-11---11/14-14---14-16-19-16/14-14/11-11---|
A|0----0----0---0---0---0---0---0---0----0----0-----0-------------------0------0---|
E|---------------------------------------------------------------------------------|

e|----------------------------------------------------------------------------------|
B|----------------------------------------------------------------------------------|
G|----------------------------------------------------------------------------------|
D|11/14-14---14/9-9---9/11-11---11/6-6---6/7-7--12-12-12-12-12-12-12-12-12-12-12-12-|
A|0-----0----0----0---0----0----0----0---0---0--0--0--0--0--0--0--0--0--0--0--0--0--|
E|----------------------------------------------------------------------------------|

e|----------------------------------------------------|
B|----------------------------------------------------|
G|----------------------------------------------------|Just keep hitting that chord at
D|-12-12-12-12-12-12-12-12-12-12-12-12-14-14-14-14-14-|the end of the intro as it
A|-0--0--0--0--0--0--0--0--0--0--0--0--0--0--0--0--0--|builds up and up, then:
E|-------------------------------------0--0--0--0--0--|

e|-----------------------------------------------------------------------------------|
B|-----------------------------------------------------------------------------------|
G|------------------------------------------------------------------------------9-11-|
D|11-14-14-11-14-11-11-9-9-7-7-4-4-7-7-4-11-14-14-11-14-11-11-9-9-7-7-4-4-7-7-4-0-0--|
A|0--0--0--0--0--0--0--0-0-0-0-0-0-0-0-0-0--0--0--0--0--0--0--0-0-0-0-0-0-0-0-0------|
E|-----------------------------------------------------------------------------------|

e|----------------------------------------------------------------------------------|
B|----------------------------------------------------------------------------------|
G||11|11|-9-11-9-11-14-14-11-11-9-9-11-11-9-9-11|11|11-9-11-9-11-14-14-11-11-9-9-11-|
D||0||0||-0-0--0-0--0--0--0--0--0-0-0--0--0-0-0||0||0--0-0--0-0--0--0--0--0--0-0-0--|
A|----------------------------------------------------------------------------------|
E|----------------------------------------------------------------------------------|

e|----- Repeat this then to lead into the verse:------------------------------------|
B|-----                        -----------------------------------------------------|
G|-11-9                        -9-11|11|11-9-11-9-11-14-14-14-14-16-----------------|
D|-0--0                        -0-0||0||0--0-0--0-0--0--0--0--0--0------------------|
A|-----                        -----------------------------------------------------|
E|-----                        -----------------------------------------------------|

e|--------|
B|--------|
G|16-16-16
D|0--0--0-|
A|--------|
E|--------|

e|-------|
B|-------| I think thats whats hit through the verse, just mind the rhythm.
G|----11-|
D|11--0--|
A|0------|
E|-------|

As far as i can figure theres no guitar under the "if theres one thing.." bit,
Then back to the post intro riff for the chorus

Ive not bothered working out the breakdowny bit yet. Theres a small bit of guitar
over the second verse as well, again not workes it out

Thats fairly rough and you have to listen for the rhythm. Some of the notes in the
big bit mightnt actually be struck twice if you get the rhythm okay. And where ive
put | in, he plays real quick up and down. No idea how to tab that properly

Anyway, hope thats in some way useful

http://www.loscampesinos.com/
Tap to rate this tab
 
# A B C D E F G H I J K L M N O P Q R S T U V W X Y Z