Song name
# A B C D E F G H I J K L M N O P Q R S T U V W X Y Z

Misc Unsigned Bands - Betontod - Intregration tab

Intro:
Gitarre1
e---------------------------------------------------|
h--8-7-8-8-7-8-8-7-7-7-10-7-------------------------|
G---------------------------------------------------|
D---------------------------------------------------| Intro/Bridge
A---------------------------------------------------|
E---------------------------------------------------|

e-----------------------------------------------------------|
h-----------------------------------------------------------|
G------------5-5-5-5-5-5------------------------------------|
D-2-2-2-2-2--5-5-5-5-5-5-5-5-5-5-5--4-4-4-4-4-4-------------| Refrain/Intro
A-2-2-2-2-2--3-3-3-3-3-3-5-5-5-5-5--4-4-4-4-4-4-------------| Bridge/Verse
E-0-0-0-0-0--------------3-3-3-3-3--2-2-2-2-2-2-------------|
Tap to rate this tab
# A B C D E F G H I J K L M N O P Q R S T U V W X Y Z