Guitaretab - guitar tabs
Song name
# A B C D E F G H I J K L M N O P Q R S T U V W X Y Z

Misc Unsigned Bands - Jimmy Robbins - Breathe Again tab

Jimmy Robbins, former band, Too Sorry For Apologies

Http://www.myspace.com/jimmyrobbins



Intro

E|---------0--------0--------------------------|
B|---------1----------1------------1-1-1-------|
G|-----2---------2-------------0-0-0-0-0-------|
D|-3----------2----------2-2-2-2-2-2-2-2-------|
A|------------0----------3-3-3-3-3-3-3-3-------|
E|---------------------------------------------|


Verses
[ Tab from: http://www.guitaretab.com/m/misc-unsigned-bands/97912.html ]
E|------------------------------------------|
B|--1--X--X--1----1--1--1--X--X--1----------|
G|--2--X--X--2----2--2--0--X--X--0----0--0--|
D|--3--X--X--3----2--2--2--X--X--2----0--0--|
A|--3--X--X-=3----0--0--3--X--X--3----2--2--|
E|------------------------------------3--3--|


Chorus

E|---------------------------------------------|
B|--1-1-1-1-1-1-1-1-1--------------------------|
G|--2-2-2-2-2-2-2-2-2--0-0-0-0-0-0-0-0-0-------|
D|--3-3-3-3-3-3-3-3-3--0-0-0-0-0-0-0-0-0-------|
A|--3-3-3-3-3-3-3-3-3--2-2-2-2-2-2-2-2-2-------|
E|---------------------3-3-3-3-3-3-3-3-3-------|




Related for Jimmy Robbins - Breathe Again tab
Advertisement will be closed in 10 seconds