Song name
# A B C D E F G H I J K L M N O P Q R S T U V W X Y Z

Misc Unsigned Bands - Deathmask - Swayze Crazy tab

Song Title: Swayze Crazy
Band: DEATHMASK
Written by: Logmar Dick Tittles, Anders Titsbottom, and Anus
Lemmings
Website: http://www.myspace.com/deathmask666
Tabbed by: Logmar Dick Tittles

Notes from the artist: You can hear our demo recording at our
myspace page. This is one of our songs that doesn't start with
a drum fill intro.

The tuning is: DADGBE

Note: * is the symbol that I am using for Speed Picking the fretted notes
      ~ is the symbol for vibrato
      . is the symbol I use for Palm Muting
        I think everything is relatively deductive in this TAB

Guitar intro:
Riff A
---------------------------------------------|
---------------------------------------------|
----------------------------------h-p--------|
------h-p---h-p-------h-p---h-p--6-7-6--h-p--|
-----7-8-7-5-8-5-----7-8-7-5-8-5-------7-8-7-|
-0-0-------------0-0-------------------------|
 . .             . .


---------------------------------------------|
---------------------------------------------|
---------------------------------------------|
------h-p---h-p-------h-p---h-p--------------|
-----7-8-7-5-8-5-----5-8-5-4-7-4-----1-------|
-0-0-------------0-0-------------0-0-1-------|
 . .             . .             . .


---------------------------------------------|
---------------------------------------------|
----------------------------------h-p--------|
------h-p---h-p-------h-p---h-p--6-7-6--h-p--|
-----7-8-7-5-8-5-----7-8-7-5-8-5-------7-8-7-|
-0-0-------------0-0-------------------------|
 . .             . .

---------------------------------------------|
---------------------------------------------|
---------------------------------------------|
------h-p---h-p-------h-p---h-p------sl------|
-----7-8-7-5-8-5-----5-8-5-4-7-4-----8\7-----|
-0-0-------------0-0-------------0-0-8\7-----|
 . .             . .             . .
End Riff A

Verse Riff B
---------------------------------------------|
---------------------------------------------|
---------------------------------------------|
---------------------------------------------|
-----3-----1-------3-----1------4----h-p-p---|
-0-0-3--0--1--0-0--3--0--1--0-0-4-0-6-8-6-0--|
 . .    .     . .     .     . .   .

---------------------------------------------|
---------------------------------------------|
---------------------------------------------|
---------------------------------------------|
-----3-----1-------4--3--1-----h-p-p---------|
-0-0-3--0--1--0-0--4--3--1--0-0-1-3-1-0------|
 . .    .     . .           .

---------------------------------------------|
---------------------------------------------|
---------------------------------------------|
---------------------------------------------|
-----3-----1-------3-----1------4----h-p-p---|
-0-0-3--0--1--0-0--3--0--1--0-0-4-0-6-8-6-0--|
 . .    .     . .     .     . .   .

---------------------------------------------|
---------------------------------------------|
-------------------------------3-------------|
-------------------------------1-------------|
-----3-----1-------3-----1-----1-------------|
-0-0-3--0--1--0-0--3--0--1--0--1-------------|
 . .    .     . .     .     .
End Verse Riff B Play 2x

Pre Chorus Riff C
---------------------------------------------|
---------------------------------------------|
---------------------------------------------|
---------------------------------------------|
-------------------------4-5-4-----7---8-----|
-0-0-0--0-0--0-0-0--0-0--------8-7---5---4---|
 . . .  . .  . . .  . .

---------------------------------------------|
---------------------------------------------|
---------------------------------------------|
-------------------------2-3-2-----3---4-1---|
-------------------------------4-3---1-------|
-0-0-0--0-0--0-0-0--0-0----------------------|
 . . .  . .  . . .  . .

---------------------------------------------|
---------------------------------------------|
---------------------------------------------|
---------------------------------7---8-------|
-------------------------8-7-6-5---5---4-----|
-0-0-0--0-0--0-0-0--0-0--8-7-6-5-------------|
 . . .  . .  . . .  . .

---------------------------------------------|
---------------------------------------------|
---------------------------------------------|
---------------------------------------------|
-------------------------4-5-4-----7---8-----|
-000---000---000---000---------8-7---5---4---|
 ...   ...   ...   ...

---------------------------------------------|
---------------------------------------------|
---------------------------------------------|
-------------------------2-3-2-----3---4-1---|
-------------------------------4-3---1-------|
-000---000---000---000-----------------------|
 ...   ...   ...   ...

---------------------------------------------|
---------------------------------------------|
---------------------------------------------|
---------------------------------7---8-------|
-------------------------8-7-6-5---5---4-----|
-000---000---000---000---8-7-6-5-------------|
 ...   ...   ...   ...

---------------------------------------------------------|
---------------------------------------------------------|
---------------------------------------------------------|
-7-------7---777---8-------8---888---5-------5---5-5-5-7-|
-5-------5---555---4-------7---777---4-------4---4-4-4-5-|
-0-0-0-0---0---------0-0-0---0---------0-0-0---0---------|
   . . .   .         . . .   .         . . .   .
First time                Second Time
-------------------------!--------------------------------|
-------------------------!--------------------------------|
-------------------------!--------------------------------|
---------*-------*-------!-*---*--------------------------|
-*-------8-------7-------!-5---4---*---*------------------|
-8-----------------------!---------8---7------------------|
 .       .       .         .   .   .   .

---------------------------------------------------------|
---------------------------------------------------------|
---------------------------------------------------------|
-7-------7---777---8-------8---888---5-------6---6-6-6---|
-5-------5---555---4-------7---777---4-------4---4-4-4---|
-0-0-0-0---0---------0-0-0---0---------0-0-0---0---------|
   . . .   .         . . .   .         . . .   .
End Chorus Riff D

Play Riff A 2x
     Riff B 2x
     Riff C 1x
     Riff D
Then play
     Riff A 2x

Riff E
------------------------------------------|
------------------------------------------|
------------------------------------------|
-7------7-7------7-8------8-5------5------|
-5------5-5------5-6------6-3------3------|
--000000---000000---000000---000000-------|
  ......   ......   ......   ......

------------------------------------------|
------------------------------------------|
------------------------------------------|
--------------------------5---------------|
-5------5-5------7-8------3-7------7------|
-55555555-55555557-8888888  77777777------|
  ......   ......   ......   ......

Riff E2
------------------------------------------|
------------------------------------------|
------------------------------------------|
-7------7-7------7-8------8-5------5------|
-5------5-5------5-6------6-3------3------|
---0--0-----0--0-----0--0-----0--0--------|
   .  .     .  .     .  .     .  .

------------------------------------------|
------------------------------------------|
------------------------------------------|
--------------------------5---------------|
-5------5-5------7-8------3-7------7------|
-5-5--5-5-5-5--5-7-8-8--8---7-7--7-7------|
   .  .     .  .     .  .     .  .
Riff E3
------------------------------------------|
------------------------------------------|
------------------------------------------|
-77777777-77777777-88888888-55555555------|
-55555555-55555555-66666666-33333333------|
-0------0-0------0------------------------|


------------------------------------------|
------------------------------------------|
------------------------------------------|
--------------------------5---------------|
-55555555-55555557-88888883-77777777------|
-55555555-55555557-8888888  77777777------|

Riff F(inally)
-------------------------------------------------|
-------------------------------------------------|
-------------------------------------------------|
-------------------------------------------------|
-------3-1-4-------4-3-6-------3-1-4-------4-3-1-|
-0-0-0-3-1-4-0-0-0-4-3-6-0-0-0-3-1-4-0-0-0-4-3-1-|
 . . .       . . .       . . .       . . . . . .

---------------------------------------------------------------|
---------------------------------------------------------------|
-------------------------------------------------4-7-4-3-------|
--------------------------------------p----0-3-6---------6-3-2-|
-------3-1-4-------4-3-6-------3-1-4-1-0-----------------------|
-0-0-0-3-1-4-0-0-0-4-3-6-0-0-0-3-1-4-----5---------------------|
 . . .       . . .       . . .       . .   . . .
End Riff F(inally) Repeat 4x

Writers note:
I am Logmar Dick Tittles The Main Rhythm Guitarist and riff creator
within the band DEATHMASK. I honestly know
nothing about the time signatures of the songs we play. Once again if
you are interested in what the song sounds like go to
http://www.myspace.com/deathmask666 and listen to the song.

Also as a disclaimer this piece of music is copyrighted so don't rip
it off...Besides why would you want to copy someone anyways? Music
is about individuality and if you don't feel that the right
to be a productive force of creation within the realm of music is
important then you don't deserve anything.
Tap to rate this tab
# A B C D E F G H I J K L M N O P Q R S T U V W X Y Z