Song name
# A B C D E F G H I J K L M N O P Q R S T U V W X Y Z

Misc Unsigned Bands - Deathmask - Sam Adams tab

Song Title: Sam Adams
Band: DEATHMASK
Written by: Logmar Dick Tittles, Anders Titsbottom, and Anus
Lemmings
Website: http://www.myspace.com/deathmask666
Tabbed by: Logmar Dick Tittles

Notes from the artist: This is the first song that we came up
with when we decided to form DEATHMASK. It was also the first demo
of a song that we have done...Recorded with one microhphone in the
room and the Logmar Dick Tittles added some guitar tracks and bass.
And Anus Lemmings (VoCalZ) can't hardly be heard at all...When we
went to record this song in a demo studio everything was fine until
Mr. Tittles put the bass track down...The bass was out of tune. And
He didn't realize it at the time...Thats pretty embarassing. So we
have opted to keep the orginal recording up on our myspace. Plus it
has a bit of a nostalgic feeling for us. Enjoy.


The tuning is: DADGBE

Note: * is the symbol that I am using for Speed Picking the fretted notes
      ~ is the symbol for vibrato
      . is the symbol I use for Palm Muting
        I think everything is relatively deductive in this TAB

Drum fill intro and i usually try to let the feedback grow until Riff A
-------------------------------------------------------------------|
-------------------------------------------------------------------|
-------------------------------------------------------------------|
-------------------------------------------------------------------|
-------------------------------------------------------------------|
-------------------------------------------------------------------|


Riff A
-------------------------------------------------------------------|
-------------------------------------------------------------------|
---------------------------h---------------------------------------|
----------h-----------h---3-5--------------h-----------------------|
-----6---5-6-----6---5-6------5~~~----6---5-6-----3-5-1-3-0-1---0--|
-0-0---0-----0-0---0--------------0-0---0-----0-0-------------3----|
 . .   .     . .   .              . .   .     . .             .

-------------------------------------------------------------------|
-------------------------------------------------------------------|
--------------------------h-----------------------------3-----p----|
----------h-----------h--3-5---------------h------5-----3----3-0---|
-----6---5-6-----6---5-6-----5~~~-----6---5-6-----3-----1----------|
-0-0---0-----0-0---0--------------0-0---0-----0-0-----0-1--0-------|
 . .   .     . .   .              . .   .     . .     .    .
End Riff A
Play 2x

Verse Riff B
---------------------------------------------------------------------------|
---------------------------------------------------------------------------|
---------------------------------------------------------------------------|
------------h--------------h--0----h--------------h------------------------|
---------1-0-1----------1-0-1-0-1-0-1----------1-0-1-----------1--4--3--1--|
-0-0-0-0-1-0-1--0-0-0-0-1-0-1---1-0-1--0-0-0-0-1-0-1--0-0-0-0--1--4--3--1--|
 . . . .        . . . .                . . . .        . . . .

---------------------------------------------------------------------------|
---------------------------------------------------------------------------|
---------------------------------------------------------------------------|
------------h--------------h--0----h--------------h------------------------|
---------1-0-1----------1-0-1-0-1-0-1----------1-0-1-----------3--4--6--7--|
-0-0-0-0-1-0-1--0-0-0-0-1-0-1---1-0-1--0-0-0-0-1-0-1--0-0-0-0--3--4--6--7--|
 . . . .        . . . .                . . . .        . . . .

---------------------------------------------------------------------------|
---------------------------------------------------------------------------|
---------------------------------------------------------------------------|
------------h--------------h--0----h--------------h------------------------|
---------1-0-1----------1-0-1-0-1-0-1----------1-0-1-----------1--4--3--1--|
-0-0-0-0-1-0-1--0-0-0-0-1-0-1---1-0-1--0-0-0-0-1-0-1--0-0-0-0--1--4--3--1--|
 . . . .        . . . .                . . . .        . . . .

---------------------------------------------------------------------------|
---------------------------------------------------------------------------|
---------------------------------------------------------------------------|
------------h--------------h--0----h--------------h------------------------|
---------1-0-1----------1-0-1-0-1-0-1----------1-0-1-----------4--5--7--8--|
-0-0-0-0-1-0-1--0-0-0-0-1-0-1---1-0-1--0-0-0-0-1-0-1--0-0-0-0--4--5--7--8--|
 . . . .        . . . .                . . . .        . . . .
End Riff B

Chorus Riff C           1/2 bend
----------------------------------------------------------------------------|
----------------------------------------------------------------------------|
-------------------------B--------------------------------------------------|
-------------------------7------------------------------sl------------------|
-----8---7-8-----8---7-8---8-7-8-----8---7-8-----8---7-8\10--7~~~-----------|
-0-0---0-----0-0---0-------------8-8---8-----7-7---7------------------------|
 . .   .     . .   .             . .   .     . .   .

                        1/2 bend
----------------------------------------------------------------------------|
----------------------------------------------------------------------------|
-------------------------B--------------------------------------------------|
-------------------------7-----------------------------------6--------------|
-----8---7-8-----8---7-8---8-7-8-----8---7-8-----8---7---5---4--------------|
-0-0---0-----0-0---0-------------8-8---8-----5-5---5---5---5----------------|
 . .   .     . .   .             . .   .     . .   .   .   .


----------------------------------------------------------------------------|
----------------------------------------------------------------------------|
-------------------------B--------------------------------------------------|
-------------------------7------------------------------sl------------------|
-----8---7-8-----8---7-8---8-7-8-----8---7-8-----8---7-8\10--7~~~-----------|
-0-0---0-----0-0---0-------------8-8---8-----7-7---7------------------------|
 . .   .     . .   .             . .   .     . .   .

                        1/2 bend
----------------------------------------------------------------------------|
----------------------------------------------------------------------------|
-------------------------B--------------------------------------------------|
-------------------------7--------------------------------------------------|
-----8---7-8-----8---7-8---8-7-8-----8---7-8-----8---7---5---6--------------|
-0-0---0-----0-0---0-------------8-8---8-----5-5---5---5---5-6--------------|
 . .   .     . .   .             . .   .     . .   .   .   .
End Riff C

Repeat Riffs B + C and hold out the last notes in Riff C During drum fill
Riff D(evestating) Repeat 4x
----------------------------------------------------------------------------|
----------------------------------------------------------------------------|
---------------------------------------------------------*-*----------------|
------------------------------------------------*------*-7-6-*--------------|
-1-------0-----3-4-0-----1-------0-----4-5-8-7--4---*--5-----6--------------|
-1-0-0-0-0-0-0-3-4-0-0-0-1-0-0-0-0-0-0-4-5-8-7------8-----------------------|
   . . .   . .       . .   . . .   . .
End Riff D

Begin Outro Riff E(xit) Repeat 4x
----------------------------------------------------------------------------|
----------------------------------------------------------------------------|
----------------------------------------------------------------------------|
----------------h-p--sl-------------6-7-6-----------------------------------|
----8-7-8-10-8-7-8-7-5\4-----8-7-8-------8-7-5-4----------------------------|
-0-0-0-0-0--0------------8-8--8-8----------------8-7------------------------|
 . . . . .  .            . .  . .        . .     . .

Outro Riff E(nding)
----------------------------------------------------------------------------|
----------------------------------------------------------------------------|
----------------------------------------------------------------------------|
------------------------------------6-7-6-----------------------------------|
----8-7-8-10-8-7-8-7-5-4-----8-7-8--------8-7-5-4---------------------------|
-0-0-0-0-0--0------------8-8--8-8-----------------8-7-----------------------|
 . . . . .  .            . .  . .         . .     . .

----------------------------------------------------------------------------|
----------------------------------------------------------------------------|
----------------------------------------------------------------------------|
----------5-------------------------6-7-6-----------------------------------|
----8-7-8----8-7-8-7-5-4-----8-7-8--------8-7-5-4---------------------------|
-5-5-5-5-5-5-------------4-4--4-4-----------------8-7-----------------------|
 . . . . . .             . .  . .         . .     . .

End Song

Writers note:
I am Logmar Dick Tittles The Main Rhythm Guitarist and riff creator
within the band DEATHMASK. Once again if you are interested in what
the song sounds like go to
http://www.myspace.com/deathmask666 and listen to the song.

Also as a disclaimer this piece of music is copyrighted so don't rip
it off...Besides why would you want to copy someone anyways? Music
is about individuality and if you don't feel that the right
to be a individual force of creation within the realm of music is
important then you don't deserve anything.
Tap to rate this tab
# A B C D E F G H I J K L M N O P Q R S T U V W X Y Z