Song name
# A B C D E F G H I J K L M N O P Q R S T U V W X Y Z

Misc Unsigned Bands - Germonators - My Finger Really Hurts tab

Tabbed by U2_rocker_G (Matthew Germon)

A little song i made to make my sister stop complaing her finger hurt:

Classical Version:

[----------2---2---2---2---2---2---2---------------------------------------]
[----------3---3---3---3---3---3---3---2---2---2---2---2---2---2-----------]
[----------2---2---2---2---2---2---2---2---2---2---2---2---2---2-----------]
[--------------------------------------2---2---2---2---2---2---2-----------]
[--------------------------------------------------------------------------]
[--------------------------------------------------------------------------]


Rock Version:

[----------2---2---2---2---2---2---2---------------------------------------]
[----------3---3---3---3---3---3---3---2---2---2---2---2---2---2-----------]
[----------2---2---2---2---2---2---2---2---2---2---2---2---2---2-----------]
[--------------------------------------2---2---2---2---2---2---2-----------]
[--------------------------------------------------------------------------]
[--------------------------------------------------------------------------]
P.M.................................................................
Tap to rate this tab
# A B C D E F G H I J K L M N O P Q R S T U V W X Y Z