Song name
# A B C D E F G H I J K L M N O P Q R S T U V W X Y Z

Misc Unsigned Bands - The Darkest Matter - New Song tab



                                         9/8
                                          SSSSS SSSSSS SSSSSS S
                     E|-----------------|----------------------|
                     B|-----------------|----------------------|
                     G|-----------------|----------------------|
Electric Guitar      D|-----------------|----------------------|
                     A|-----------------|-7-6-10-7-6-10-7-6-10-|
                     E|-----------------|--0-0--0-0-0--0-0-0--0|
                      |
                      |
                      |
                      |
                      |
                      |                   SSSSS SSSSSS SSSSSS S
                     E|-----------------|----------------------|
                     B|-----------------|----------------------|
                     G|-----------------|----------------------|
Electric Guitar      D|-----------------|----------------------|
                     A|-----------------|-7-6-10-7-6-10-7-6-10-|
                     E|-----------------|--0-0--0-0-0--0-0-0--0|
                      |
                      |
                      |
                      |
                      |
                      |                   SSSSS SSSSSS SSSSSS S
                     G|-----------------|----------------------|
                     D|-----------------|----------------------|
5-string Bass Guitar A|-----------------|-7-6-10-7-6-10-7-6-10-|
                     E|-----------------|--0-0--0-0-0--0-0-0--0|
                     B|-----------------|----------------------|





  6/83-| |-3-| |--3--|  |--3--|  |-3-| |--3--|  9/8
   S S S S S S S  S  S  S  S  S  S S S S  S  S   SSSSS SSSSSS SSSSSS S
E|---------------------------------------------|----------------------|
B|---------------------------------------------|----------------------|
G|-------------------------------8-8-8-11-11-11|----------------------|
D|----------------------9--9--9----------------|----------------------|
A|-7-7-7-6-6-6-10-10-10------------------------|-7-6-10-7-6-10-7-6-10-|
E|---------------------------------------------|--0-0--0-0-0--0-0-0--0|
 |
 |
 |
 |
 | |-3-| |-3-| |--3--|  |--3--|  |-3-| |--3--|
 | S S S S S S S  S  S  S  S  S  S S S S  S  S   SSSSS SSSSSS SSSSSS S
E|---------------------------------------------|----------------------|
B|---------------------------------------------|----------------------|
G|---------------------------------------------|----------------------|
D|-------------------------------9-9-9-13-13-13|----------------------|
A|----------------------10-10-10---------------|-7-6-10-7-6-10-7-6-10-|
E|-8-8-8-7-7-7-11-11-11------------------------|--0-0--0-0-0--0-0-0--0|
 |
 |
 |
 |
 | |-3-| |-3-| |--3--|  |--3--|  |-3-| |--3--|
 | S S S S S S S  S  S  S  S  S  S S S S  S  S   SSSSS SSSSSS SSSSSS S
G|---------------------------------------------|----------------------|
D|---------------------------------------------|----------------------|
A|---------------------------------------------|-7-6-10-7-6-10-7-6-10-|
E|-0-0-0---------------------------------------|--0-0--0-0-0--0-0-0--0|
B|-------1-1-1-8--8--8--0--0--0--4-4-4-7--7--7-|----------------------|





  5/83-| |-3--| |-3--|      6/8
   S S S S S  S S S  S Q     S  SSS S  S S  SSS S  S
E|-------------------------|------------------------|
B|-------------------------|------------------------|
G|-------------------------|------------------------|
D|--------------9-11-13----|------------------------|
A|-------8-10-12-----------|-11-7-7-11-7-11-7-7-11-7|
E|-7-9-11------------------|-----8-----------8------|
 |
 |
 |
 |
 | |-3-| |-3--| |-3--|
 | S S S S S  S S S  S Q     S  SSS S  S S  SSS S  S
E|-------------------------|------------------------|
B|-------------------------|------------------------|
G|-------------------------|------------------------|
D|--------------9-11-13----|------------------------|
A|-------8-10-12-----------|-11-7-7-11-7-11-7-7-11-7|
E|-7-9-11------------------|-----8-----------8------|
 |
 |
 |
 |
 | |-3-| |-3--| |-3--|
 | S S S S S  S S S  S Q     S  SSS S  S S  SSS S  S
G|-------------------------|------------------------|
D|--------------9-11-13----|------------------------|
A|-------8-10-12-----------|-11-7-7-11-7-11-7-7-11-7|
E|-7-9-11------------------|-----8-----------8------|
B|-------------------------|------------------------|





  8/83-| |-3-||-3-| |-3-||-3-| |-3-| |-3-| |-3-| 6/8
   S S S S S SS S S S S SS S S S S S S S S S S S  S  SSS S  S S  SSS S  S
E|----------------------------------------------|------------------------|
B|----------------------------------------------|------------------------|
G|----------------------------------------------|------------------------|
D|-----------------------------6-6-6-7-7-7-9-9-9|------------------------|
A|------------8-8-8-7-7-7-----------------------|-10-6-6-10-6-10-6-6-10-6|
E|-4-4-4-5-5-5-----------8-8-8------------------|-----7-----------7------|
 |
 |
 |
 |
 | |-3-| |-3-||-3-| |-3-||-3-| |-3-| |-3-| |-3-|
 | S S S S S SS S S S S SS S S S S S S S S S S S  S  SSS S  S S  SSS S  S
E|----------------------------------------------|------------------------|
B|----------------------------------------------|------------------------|
G|----------------------------------------------|------------------------|
D|-----------------------------6-6-6-7-7-7-9-9-9|------------------------|
A|------------8-8-8-7-7-7-----------------------|-10-6-6-10-6-10-6-6-10-6|
E|-4-4-4-5-5-5-----------8-8-8------------------|-----7-----------7------|
 |
 |
 |
 |
 | |-3-| |-3-||-3-| |-3-||-3-| |-3-| |-3-| |-3-|
 | S S S S S SS S S S S SS S S S S S S S S S S S  S  SSS S  S S  SSS S  S
G|----------------------------------------------|------------------------|
D|----------------------------------------------|------------------------|
A|------------8-8-8-7-7-7-----------------------|-10-6-6-10-6-10-6-6-10-6|
E|-4-4-4-5-5-5-----------8-8-8-4-4-4-5-5-5-7-7-7|-----7-----------7------|
B|----------------------------------------------|------------------------|





  8/83-| |-3-||-3-| |-3-||-3-| |-3-| |-3-| |-3-| 6/8
   S S S S S SS S S S S SS S S S S S S S S S S S  S  SSS S  S S  SSS S  S
E|----------------------------------------------|------------------------|
B|----------------------------------------------|------------------------|
G|-----------------------------------7-7-7-8-8-8|------------------------|
D|-----------------------6-6-6-9-9-9------------|------------------------|
A|------------5-5-5-8-8-8-----------------------|-11-7-7-11-7-11-7-7-11-7|
E|-4-4-4-7-7-7----------------------------------|-----8-----------8------|
 |
 |
 |
 |
 | |-3-| |-3-||-3-| |-3-||-3-| |-3-| |-3-| |-3-|
 | S S S S S SS S S S S SS S S S S S S S S S S S  S  SSS S  S S  SSS S  S
E|----------------------------------------------|------------------------|
B|----------------------------------------------|------------------------|
G|-----------------------------------7-7-7-8-8-8|------------------------|
D|-----------------------6-6-6-9-9-9------------|------------------------|
A|------------5-5-5-8-8-8-----------------------|-11-7-7-11-7-11-7-7-11-7|
E|-4-4-4-7-7-7----------------------------------|-----8-----------8------|
 |
 |
 |
 |
 | |-3-| |-3-||-3-| |-3-||-3-| |-3-| |-3-| |-3-|
 | S S S S S SS S S S S SS S S S S S S S S S S S  S  SSS S  S S  SSS S  S
G|----------------------------------------------|------------------------|
D|----------------------------------------------|------------------------|
A|------------5-5-5-8-8-8-----------------------|-11-7-7-11-7-11-7-7-11-7|
E|-4-4-4-7-7-7-----------8-8-8-4-4-4-5-5-5-7-7-7|-----8-----------8------|
B|----------------------------------------------|------------------------|





  8/83-| |-3-||-3-| |-3-||-3-| |-3-| |-3-| |-3-| 6/8
   S S S S S SS S S S S SS S S S S S S S S S S S  S  SSS S  S S  SSS S  S
E|----------------------------------------------|------------------------|
B|----------------------------------------------|------------------------|
G|----------------------------------------------|------------------------|
D|-----------------------------6-6-6-7-7-7-9-9-9|------------------------|
A|------------8-8-8-7-7-7-----------------------|-10-6-6-10-6-10-6-6-10-6|
E|-4-4-4-5-5-5-----------8-8-8------------------|-----7-----------7------|
 |
 |
 |
 |
 | |-3-| |-3-||-3-| |-3-||-3-| |-3-| |-3-| |-3-|
 | S S S S S SS S S S S SS S S S S S S S S S S S  S  SSS S  S S  SSS S  S
E|----------------------------------------------|------------------------|
B|----------------------------------------------|------------------------|
G|----------------------------------------------|------------------------|
D|-----------------------------6-6-6-7-7-7-9-9-9|------------------------|
A|------------8-8-8-7-7-7-----------------------|-10-6-6-10-6-10-6-6-10-6|
E|-4-4-4-5-5-5-----------8-8-8------------------|-----7-----------7------|
 |
 |
 |
 |
 | |-3-| |-3-||-3-| |-3-||-3-| |-3-| |-3-| |-3-|
 | S S S S S SS S S S S SS S S S S S S S S S S S  S  SSS S  S S  SSS S  S
G|----------------------------------------------|------------------------|
D|----------------------------------------------|------------------------|
A|------------8-8-8-7-7-7-----------------------|-10-6-6-10-6-10-6-6-10-6|
E|-4-4-4-5-5-5-----------8-8-8-4-4-4-5-5-5-7-7-7|-----7-----------7------|
B|----------------------------------------------|------------------------|





  8/83-| |-3-||-3-| |-3-||-3-| |-3-| |-3-| |-3-|
   S S S S S SS S S S S SS S S S S S S S S S S S
E|----------------------------------------------|
B|----------------------------------------------|
G|-----------------------------------7-7-7-8-8-8|
D|-----------------------6-6-6-9-9-9------------|
A|------------5-5-5-8-8-8-----------------------|
E|-4-4-4-7-7-7----------------------------------|
 |
 |
 |
 |
 | |-3-| |-3-||-3-| |-3-||-3-| |-3-| |-3-| |-3-|
 | S S S S S SS S S S S SS S S S S S S S S S S S
E|----------------------------------------------|
B|----------------------------------------------|
G|-----------------------------------7-7-7-8-8-8|
D|-----------------------6-6-6-9-9-9------------|
A|------------5-5-5-8-8-8-----------------------|
E|-4-4-4-7-7-7----------------------------------|
 |
 |
 |
 |
 | |-3-| |-3-||-3-| |-3-||-3-| |-3-| |-3-| |-3-|
 | S S S S S SS S S S S SS S S S S S S S S S S S
G|----------------------------------------------|
D|----------------------------------------------|
A|------------5-5-5-8-8-8-----------------------|
E|-4-4-4-7-7-7-----------8-8-8-4-4-4-5-5-5-7-7-7|
B|----------------------------------------------|






   S T TS  S S  S S S S  S S S S S S S  S T TS  S S  S S S S  S S S S S S S
E|------------------------------------|------------------------------------|
B|------------------------------------|------------------------------------|
G|-8-9-8---8--------------------------|-7-8-7---7--------------------------|
D|------10---10-9-7-9-10-9-7-6-7-6----|------10---10-9-6-9-10-9-7-6-7-6----|
A|---------------------------------8-7|---------------------------------8-7|
E|------------------------------------|------------------------------------|
 |
 |
 |
 |
 |
 | S T TS  S S  S S S S  S S S S S S S  S T TS  S S  S S S S  S S S S S S S
E|------------------------------------|------------------------------------|
B|------------------------------------|------------------------------------|
G|-8-9-8---8--------------------------|-7-8-7---7--------------------------|
D|------10---10-9-7-9-10-9-7-6-7-6----|------10---10-9-6-9-10-9-7-6-7-6----|
A|---------------------------------8-7|---------------------------------8-7|
E|------------------------------------|------------------------------------|
 |
 |
 |
 |
 |
 | S S  S  S S  S S S S  S S S S S S S  S S  S  S S  S S S S  S S S S S S S
G|------------------------------------|------------------------------------|
D|------------------------------------|------------------------------------|
A|------------------------------------|-----------------------------3-3-3-3|
E|-0-0--0--0-0--0-0-0-0---------------|------------------------------------|
B|-----------------------4-5-7-8-7-5-4|-1-1--1--1-1--1-1-1-0--0-0-0--------|






   S T TS  S S  S S S S  S S S S S S S  S T TS  S S  S S S S  S S S S S S S
E|------------------------------------|------------------------------------|
B|------------------------------------|------------------------------------|
G|-8-9-8---8--------------------------|-7-8-7---7--------------------------|
D|------10---10-9-7-9-10-9-7-6-7-6----|------10---10-9-6-9-10-9-7-6-7-6----|
A|---------------------------------8-7|---------------------------------8-7|
E|------------------------------------|------------------------------------|
 |
 |
 |
 |
 |
 | S T TS  S S  S S S S  S S S S S S S  S T TS  S S  S S S S  S S S S S S S
E|------------------------------------|------------------------------------|
B|------------------------------------|------------------------------------|
G|-8-9-8---8--------------------------|-7-8-7---7--------------------------|
D|------10---10-9-7-9-10-9-7-6-7-6----|------10---10-9-6-9-10-9-7-6-7-6----|
A|---------------------------------8-7|---------------------------------8-7|
E|------------------------------------|------------------------------------|
 |
 |
 |
 |
 |
 | S S  S  S S  S S S S  S S S S S S S  S S  S  S S  S S S S  S S S S S S S
G|------------------------------------|------------------------------------|
D|------------------------------------|------------------------------------|
A|------------------------------------|-----------------------------3-3-3-3|
E|-0-0--0--0-0--0-0-0-0---------------|------------------------------------|
B|-----------------------4-5-7-8-7-5-4|-1-1--1--1-1--1-1-1-0--0-0-0--------|





  9/83-| |-3--| |-3--| |-3-| |-3--| |-3--| |-3-| |-3--| |-3--|
   S S S S S  S S S  S S S S S S  S S S  S S S S S S  S S S  S
E|-------------------------------------------------------------|
B|-------------------------------------------------------------|
G|-------------------------------------------------------------|
D|--------------9-11-13-------------9-11-13-------------9-11-13|
A|-------8-10-12-------------8-10-12-------------8-10-12-------|
E|-7-9-11--------------7-9-11--------------7-9-11--------------|
 |
 |
 |
 |
 | |-3-| |-3--| |-3--| |-3-| |-3--| |-3--| |-3-| |-3--| |-3--|
 | S S S S S  S S S  S S S S S S  S S S  S S S S S S  S S S  S
E|-------------------------------------------------------------|
B|-------------------------------------------------------------|
G|-------------------------------------------------------------|
D|--------------9-11-13-------------9-11-13-------------9-11-13|
A|-------8-10-12-------------8-10-12-------------8-10-12-------|
E|-7-9-11--------------7-9-11--------------7-9-11--------------|
 |
 |
 |
 |
 | |-3-| |-3--| |-3--| |-3-| |-3--| |-3--| |-3-| |-3--| |-3--|
 | S S S S S  S S S  S S S S S S  S S S  S S S S S S  S S S  S
G|-------------------------------------------------------------|
D|--------------9-11-13-------------9-11-13-------------9-11-13|
A|-------8-10-12-------------8-10-12-------------8-10-12-------|
E|-7-9-11--------------7-9-11--------------7-9-11--------------|
B|-------------------------------------------------------------|





  6/8                      8/83-| |-3-||-3-| |-3-||-3-| |-3-| |-3-| |-3-|
   S  SSS S  S S  SSS S  S  S S S S S SS S S S S SS S S S S S S S S S S S
E|------------------------|----------------------------------------------|
B|------------------------|----------------------------------------------|
G|------------------------|----------------------------------------------|
D|------------------------|-----------------------------6-6-6-7-7-7-9-9-9|
A|-11-7-7-11-7-11-7-7-11-7|------------8-8-8-7-7-7-----------------------|
E|-----8-----------8------|-4-4-4-5-5-5-----------8-8-8------------------|
 |
 |
 |
 |
 |                          |-3-| |-3-||-3-| |-3-||-3-| |-3-| |-3-| |-3-|
 | S  SSS S  S S  SSS S  S  S S S S S SS S S S S SS S S S S S S S S S S S
E|------------------------|----------------------------------------------|
B|------------------------|----------------------------------------------|
G|------------------------|----------------------------------------------|
D|------------------------|-----------------------------6-6-6-7-7-7-9-9-9|
A|-11-7-7-11-7-11-7-7-11-7|------------8-8-8-7-7-7-----------------------|
E|-----8-----------8------|-4-4-4-5-5-5-----------8-8-8------------------|
 |
 |
 |
 |
 |                          |-3-| |-3-||-3-| |-3-||-3-| |-3-| |-3-| |-3-|
 | S  SSS S  S S  SSS S  S  S S S S S SS S S S S SS S S S S S S S S S S S
G|------------------------|----------------------------------------------|
D|------------------------|----------------------------------------------|
A|-11-7-7-11-7-11-7-7-11-7|------------8-8-8-7-7-7-----------------------|
E|-----8-----------8------|-4-4-4-5-5-5-----------8-8-8-4-4-4-5-5-5-7-7-7|
B|------------------------|----------------------------------------------|





  6/8                      8/83-| |-3-||-3-| |-3-||-3-| |-3-| |-3-| |-3-|
   S  SSS S  S S  SSS S  S  S S S S S SS S S S S SS S S S S S S S S S S S
E|------------------------|----------------------------------------------|
B|------------------------|----------------------------------------------|
G|------------------------|-----------------------------------7-7-7-8-8-8|
D|------------------------|-----------------------6-6-6-9-9-9------------|
A|-10-6-6-10-6-10-6-6-10-6|------------5-5-5-8-8-8-----------------------|
E|-----7-----------7------|-4-4-4-7-7-7----------------------------------|
 |
 |
 |
 |
 |                          |-3-| |-3-||-3-| |-3-||-3-| |-3-| |-3-| |-3-|
 | S  SSS S  S S  SSS S  S  S S S S S SS S S S S SS S S S S S S S S S S S
E|------------------------|----------------------------------------------|
B|------------------------|----------------------------------------------|
G|------------------------|-----------------------------------7-7-7-8-8-8|
D|------------------------|-----------------------6-6-6-9-9-9------------|
A|-10-6-6-10-6-10-6-6-10-6|------------5-5-5-8-8-8-----------------------|
E|-----7-----------7------|-4-4-4-7-7-7----------------------------------|
 |
 |
 |
 |
 |                          |-3-| |-3-||-3-| |-3-||-3-| |-3-| |-3-| |-3-|
 | S  SSS S  S S  SSS S  S  S S S S S SS S S S S SS S S S S S S S S S S S
G|------------------------|----------------------------------------------|
D|------------------------|----------------------------------------------|
A|-10-6-6-10-6-10-6-6-10-6|------------5-5-5-8-8-8-----------------------|
E|-----7-----------7------|-4-4-4-7-7-7-----------8-8-8-4-4-4-5-5-5-7-7-7|
B|------------------------|----------------------------------------------|





     |-3-||-3-||-3-| |-3-||-3-| |-3-| |-3-| |-3-|
     S S SS S SS S S S S SS S S S S S S S S S S S
E||----------------------------------------------|
B||----------------------------------------------|
G||*---------------------------------------------|
D||*---------------------------------------------|
A||--7-7-7-----7-7-7-6-6-6-----------------------|
E||-------0-0-0-----------8-8-8-0-0-0-8-8-8-7-7-7|
 |
 |
 |
 |
 |   |-3-||-3-||-3-| |-3-||-3-| |-3-| |-3-| |-3-|
 |   S S SS S SS S S S S SS S S S S S S S S S S S
E||----------------------------------------------|
B||----------------------------------------------|
G||*---------------------------------------------|
D||*---------------------------------------------|
A||--7-7-7-----7-7-7-6-6-6-----------------------|
E||-------0-0-0-----------8-8-8-0-0-0-8-8-8-7-7-7|
 |
 |
 |
 |
 |   |-3-||-3-||-3-| |-3-||-3-| |-3-| |-3-| |-3-|
 |   S S SS S SS S S S S SS S S S S S S S S S S S
G||----------------------------------------------|
D||*---------------------------------------------|
A||*-7-7-7-----7-7-7-6-6-6-----------------------|
E||-------0-0-0-----------8-8-8-0-0-0-8-8-8-7-7-7|
B||----------------------------------------------|





   |-3-||-3-||-3-| |-3-||-3-| |-3-| |-3-||-3-|
   S S SS S SS S S S S SS S S S S S S S SS S S
E|----------------------------------------------||
B|----------------------------------------------||
G|---------------------------------------------*||
D|---------------------------------------1-1-1-*||
A|-7-7-7-----7-7-7-6-6-6------------------------||
E|------0-0-0-----------4-4-4-7-7-7-1-1-1-------||
 |
 |
 |
 |
 | |-3-||-3-||-3-| |-3-||-3-| |-3-| |-3-||-3-|
 | S S SS S SS S S S S SS S S S S S S S SS S S
E|----------------------------------------------||
B|----------------------------------------------||
G|---------------------------------------------*||
D|---------------------------------------1-1-1-*||
A|-7-7-7-----7-7-7-6-6-6------------------------||
E|------0-0-0-----------4-4-4-7-7-7-1-1-1-------||
 |
 |
 |
 |
 | |-3-||-3-||-3-| |-3-||-3-| |-3-| |-3-||-3-|
 | S S SS S SS S S S S SS S S S S S S S SS S S
G|----------------------------------------------||
D|---------------------------------------------*||
A|-7-7-7-----7-7-7-6-6-6-----------------------*||
E|------0-0-0-----------4-4-4-7-7-7-1-1-1-------||
B|---------------------------------------4-4-4--||





   |-3-| |-3-| |-3-| |-3-| |-3-| |-3-| |-3-| |-3-|
   S S S S S S S S S S S S S S S S S S S S S S S S
E|------------------------------------------------|
B|------------------------------------------------|
G|------------------------------------------------|
D|------------------------------------------------|
A|------------------------------------------------|
E|-8-8-8-0-0-0-8-8-8-8-8-8-8-8-8-7-7-7-5-5-5-7-7-7|
 |
 |
 |
 |
 | |-3-| |-3-| |-3-| |-3-| |-3-| |-3-| |-3-| |-3-|
 | S S S S S S S S S S S S S S S S S S S S S S S S
E|------------------------------------------------|
B|------------------------------------------------|
G|------------------------------------------------|
D|------------------------------------------------|
A|------------------------------------------------|
E|-8-8-8-0-0-0-8-8-8-8-8-8-8-8-8-7-7-7-5-5-5-7-7-7|
 |
 |
 |
 |
 | |-3-| |-3-| |-3-| |-3-| |-3-| |-3-| |-3-| |-3-|
 | S S S S S S S S S S S S S S S S S S S S S S S S
G|------------------------------------------------|
D|------------------------------------------------|
A|------------------------------------------------|
E|-8-8-8-0-0-0-8-8-8-8-8-8-8-8-8-7-7-7-5-5-5-7-7-7|
B|------------------------------------------------|





   |-3-| |-3-| |-3-| |-3-| |-3-| |-3-| |-3-| |-3-|
   S S S S S S S S S S S S S S S S S S S S S S S S
E|------------------------------------------------|
B|------------------------------------------------|
G|------------------------------------------------|
D|------------------------------------------------|
A|------------------------------------------------|
E|-4-4-4-4-4-4-4-4-4-4-4-4-1-1-1-1-1-1-0-0-0-0-0-0|
 |
 |
 |
 |
 | |-3-| |-3-| |-3-| |-3-| |-3-| |-3-| |-3-| |-3-|
 | S S S S S S S S S S S S S S S S S S S S S S S S
E|------------------------------------------------|
B|------------------------------------------------|
G|------------------------------------------------|
D|------------------------------------------------|
A|------------------------------------------------|
E|-4-4-4-4-4-4-4-4-4-4-4-4-1-1-1-1-1-1-0-0-0-0-0-0|
 |
 |
 |
 |
 | |-3-| |-3-| |-3-| |-3-| |-3-| |-3-| |-3-| |-3-|
 | S S S S S S S S S S S S S S S S S S S S S S S S
G|------------------------------------------------|
D|------------------------------------------------|
A|------------------------------------------------|
E|-4-4-4-4-4-4-4-4-4-4-4-4-1-1-1-1-1-1-0-0-0-0-0-0|
B|------------------------------------------------|





   |-3-| |-3-| |-3-| |-3-| |-3-| |-3-| |-3-| |-3-|
   S S S S S S S S S S S S S S S S S S S S S S S S
E|------------------------------------------------|
B|------------------------------------------------|
G|------------------------------------------------|
D|------------------------------------------------|
A|------------------------------------------------|
E|-8-8-8-0-0-0-8-8-8-8-8-8-8-8-8-7-7-7-5-5-5-7-7-7|
 |
 |
 |
 |
 | |-3-| |-3-| |-3-| |-3-| |-3-| |-3-| |-3-| |-3-|
 | S S S S S S S S S S S S S S S S S S S S S S S S
E|------------------------------------------------|
B|------------------------------------------------|
G|------------------------------------------------|
D|------------------------------------------------|
A|------------------------------------------------|
E|-8-8-8-0-0-0-8-8-8-8-8-8-8-8-8-7-7-7-5-5-5-7-7-7|
 |
 |
 |
 |
 | |-3-| |-3-| |-3-| |-3-| |-3-| |-3-| |-3-| |-3-|
 | S S S S S S S S S S S S S S S S S S S S S S S S
G|------------------------------------------------|
D|------------------------------------------------|
A|------------------------------------------------|
E|-8-8-8-0-0-0-8-8-8-8-8-8-8-8-8-7-7-7-5-5-5-7-7-7|
B|------------------------------------------------|





   |-3-| |-3-| |-3-| |-3-| |-3-| |-3-| |-3-| |-3-|
   S S S S S S S S S S S S S S S S S S S S S S S S
E|------------------------------------------------|
B|------------------------------------------------|
G|------------------------------------------------|
D|------------------------------------------------|
A|------------------------------------------------|
E|-4-4-4-4-4-4-4-4-4-4-4-4-4-4-4-4-4-4-4-4-4-4-4-4|
 |
 |
 |
 |
 | |-3-| |-3-| |-3-| |-3-| |-3-| |-3-| |-3-| |-3-|
 | S S S S S S S S S S S S S S S S S S S S S S S S
E|------------------------------------------------|
B|------------------------------------------------|
G|------------------------------------------------|
D|------------------------------------------------|
A|------------------------------------------------|
E|-4-4-4-4-4-4-4-4-4-4-4-4-4-4-4-4-4-4-4-4-4-4-4-4|
 |
 |
 |
 |
 | |-3-| |-3-| |-3-| |-3-| |-3-| |-3-| |-3-| |-3-|
 | S S S S S S S S S S S S S S S S S S S S S S S S
G|------------------------------------------------|
D|------------------------------------------------|
A|------------------------------------------------|
E|-4-4-4-4-4-4-4-4-4-4-4-4-4-4-4-4-4-4-4-4-4-4-4-4|
B|------------------------------------------------|





   |-3-| |-3-| |-3-| |-3-| |-3-| |-3-| |-3-| |-3-|
   S S S S S S S S S S S S S S S S S S S S S S S S
E|------------------------------------------------|
B|------------------------------------------------|
G|------------------------------------------------|
D|------------------------------------------------|
A|------------------------------------------------|
E|-8-8-8-0-0-0-8-8-8-8-8-8-8-8-8-7-7-7-5-5-5-7-7-7|
 |
 |
 |
 |
 | |-3-| |-3-| |-3-| |-3-| |-3-| |-3-| |-3-| |-3-|
 | S S S S S S S S S S S S S S S S S S S S S S S S
E|------------------------------------------------|
B|------------------------------------------------|
G|------------------------------------------------|
D|------------------------------------------------|
A|------------------------------------------------|
E|-8-8-8-0-0-0-8-8-8-8-8-8-8-8-8-7-7-7-5-5-5-7-7-7|
 |
 |
 |
 |
 | |-3-| |-3-| |-3-| |-3-| |-3-| |-3-| |-3-| |-3-|
 | S S S S S S S S S S S S S S S S S S S S S S S S
G|------------------------------------------------|
D|------------------------------------------------|
A|------------------------------------------------|
E|-8-8-8-0-0-0-8-8-8-8-8-8-8-8-8-7-7-7-5-5-5-7-7-7|
B|------------------------------------------------|





   |-3-| |-3-| |-3-| |-3-| |-3-| |-3-| |-3-| |-3-|
   S S S S S S S S S S S S S S S S S S S S S S S S
E|------------------------------------------------|
B|------------------------------------------------|
G|------------------------------------------------|
D|------------------------------------------------|
A|------------------------------------------------|
E|-4-4-4-4-4-4-4-4-4-4-4-4-1-1-1-1-1-1-0-0-0-0-0-0|
 |
 |
 |
 |
 | |-3-| |-3-| |-3-| |-3-| |-3-| |-3-| |-3-| |-3-|
 | S S S S S S S S S S S S S S S S S S S S S S S S
E|------------------------------------------------|
B|------------------------------------------------|
G|------------------------------------------------|
D|------------------------------------------------|
A|------------------------------------------------|
E|-4-4-4-4-4-4-4-4-4-4-4-4-1-1-1-1-1-1-0-0-0-0-0-0|
 |
 |
 |
 |
 | |-3-| |-3-| |-3-| |-3-| |-3-| |-3-| |-3-| |-3-|
 | S S S S S S S S S S S S S S S S S S S S S S S S
G|------------------------------------------------|
D|------------------------------------------------|
A|------------------------------------------------|
E|-4-4-4-4-4-4-4-4-4-4-4-4-1-1-1-1-1-1-0-0-0-0-0-0|
B|------------------------------------------------|





   |-3-| |-3-| |-3-| |-3-| |-3-| |-3-| |-3-| |-3-|
   S S S S S S S S S S S S S S S S S S S S S S S S  SSE Q   Q   Q
E|------------------------------------------------|-----------------|
B|------------------------------------------------|-----------------|
G|------------------------------------------------|-----------------|
D|------------------------------------------------|-------------3---|
A|------------------------------------------------|-------------3---|
E|-8-8-8-0-0-0-8-8-8-8-8-8-8-8-8-7-7-7-5-5-5-7-7-7|-4-----------1---|
 |
 |
 |
 |
 | |-3-| |-3-| |-3-| |-3-| |-3-| |-3-| |-3-| |-3-|
 | S S S S S S S S S S S S S S S S S S S S S S S S  SSE Q   Q   Q
E|------------------------------------------------|-----------------|
B|------------------------------------------------|-----------------|
G|------------------------------------------------|-----------------|
D|------------------------------------------------|-------------3---|
A|------------------------------------------------|-------------3---|
E|-8-8-8-0-0-0-8-8-8-8-8-8-8-8-8-7-7-7-5-5-5-7-7-7|-4-----------1---|
 |
 |
 |
 |
 | |-3-| |-3-| |-3-| |-3-| |-3-| |-3-| |-3-| |-3-|
 | S S S S S S S S S S S S S S S S S S S S S S S S  SSE Q   Q   Q
G|------------------------------------------------|-----------------|
D|------------------------------------------------|-----------------|
A|------------------------------------------------|-----------------|
E|-8-8-8-0-0-0-8-8-8-8-8-8-8-8-8-7-7-7-5-5-5-7-7-7|-4-----------1---|
B|------------------------------------------------|-----------------|





  4/4
   H       E E E E   Q   Q.    E Q     H       E E E E   Q   E E Q   Q
E|-----------------|-----------------|-----------------|-----------------|
B|-----------------|-----------------|-----------------|-----------------|
G|-----------------|-----------------|-----------------|-----------------|
D|-2+------2-2-3-2-|-6---5-----2-3---|-2+------2-2-3-2-|-6---5-------3---|
A|-2+------2-2-3-2-|-6---5-----2-3---|-2+------2-2-3-2-|-6---5-------3---|
E|-0+------0-0-1-0-|-4---3-----0-1---|-0+------0-0-1-0-|-4---3-------1---|
 |
 |
 |
 |
 |
 | H       E E E E   Q   Q.    E Q     H       E E E E   Q   E E Q   Q
E|-----------------|-----------------|-----------------|-----------------|
B|-----------------|-----------------|-----------------|-----------------|
G|-----------------|-----------------|-----------------|-----------------|
D|-2+------2-2-3-2-|-6---5-----2-3---|-2+------2-2-3-2-|-6---5-------3---|
A|-2+------2-2-3-2-|-6---5-----2-3---|-2+------2-2-3-2-|-6---5-------3---|
E|-0+------0-0-1-0-|-4---3-----0-1---|-0+------0-0-1-0-|-4---3-------1---|
 |
 |
 |
 |
 |
 | H       E E E E   Q   Q.    E Q     H       E E E E   Q   E E Q   Q
G|-----------------|-----------------|-----------------|-----------------|
D|-----------------|-----------------|-----------------|-----------------|
A|-----------------|-----------------|-----------------|-----------------|
E|-0-------0-0-1-0-|-4---3-----0-1---|-0-------0-0-1-0-|-4---3-------1---|
B|-----------------|-----------------|-----------------|-----------------|






   H       E E E E   Q   Q.    E Q     H       E E E E   Q   E E Q   Q
E|-----------------|-----------------|-----------------|-----------------|
B|-----------------|-----------------|-----------------|-----------------|
G|-----------------|-----------------|-----------------|-----------------|
D|-2+------2-2-3-2-|-6---5-----2-3---|-2+------2-2-3-2-|-6---5-------3---|
A|-2+------2-2-3-2-|-6---5-----2-3---|-2+------2-2-3-2-|-6---5-------3---|
E|-0+------0-0-1-0-|-4---3-----0-1---|-0+------0-0-1-0-|-4---3-------1---|
 |
 |
 |
 |
 |
 | H       E E E E   Q   Q.    E Q     H       E E E E   Q   E E Q   Q
E|-----------------|-----------------|-----------------|-----------------|
B|-----------------|-----------------|-----------------|-----------------|
G|-----------------|-----------------|-----------------|-----------------|
D|-2+------2-2-3-2-|-6---5-----2-3---|-2+------2-2-3-2-|-6---5-------3---|
A|-2+------2-2-3-2-|-6---5-----2-3---|-2+------2-2-3-2-|-6---5-------3---|
E|-0+------0-0-1-0-|-4---3-----0-1---|-0+------0-0-1-0-|-4---3-------1---|
 |
 |
 |
 |
 |
 | H       E E E E   Q   Q.    E Q     H       E E E E   Q   E E Q   Q
G|-----------------|-----------------|-----------------|-----------------|
D|-----------------|-----------------|-----------------|-----------------|
A|-----------------|-----------------|-----------------|-----------------|
E|-0-------0-0-1-0-|-4---3-----0-1---|-0-------0-0-1-0-|-4---3-----------|
B|-----------------|-----------------|-----------------|-----------------|






   H       E E E E   Q   Q.    E Q     H       E E E E   Q   Q.    E Q
E|-----------------|-----------------|-----------------|-----------------|
B|-----------------|-----------------|-----------------|-----------------|
G|-----------------|-----------------|-----------------|-----------------|
D|-2+------2-2-3-2-|-6---5-----2-3---|-2+------2-2-3-2-|-6---5-----2-3---|
A|-2+------2-2-3-2-|-6---5-----2-3---|-2+------2-2-3-2-|-6---5-----2-3---|
E|-0+------0-0-1-0-|-4---3-----0-1---|-0+------0-0-1-0-|-4---3-----0-1---|
 |
 |
 |
 |
 |
 | H       E E E E   Q   Q.    E Q     H       E E E E   Q   Q.    E Q
E|-----------------|-----------------|-----------------|-----------------|
B|-----------------|-----------------|-----------------|-----------------|
G|-----------------|-----------------|-----------------|-----------------|
D|-2+------2-2-3-2-|-6---5-----2-3---|-2+------2-2-3-2-|-6---5-----2-3---|
A|-2+------2-2-3-2-|-6---5-----2-3---|-2+------2-2-3-2-|-6---5-----2-3---|
E|-0+------0-0-1-0-|-4---3-----0-1---|-0+------0-0-1-0-|-4---3-----0-1---|
 |
 |
 |
 |
 |
 | H       E E E E   Q   Q.    E Q     H       E E E E   Q   Q.    E Q
G|-----------------|-----------------|-----------------|-----------------|
D|-----------------|-----------------|-----------------|-----------------|
A|-----------------|-----------------|-----------------|-----------------|
E|-0-------0-0-1-0-|-4---3-----0-1---|-0-------0-0-1-0-|-4---3-----0-1---|
B|-----------------|-----------------|-----------------|-----------------|






   H       E E E E   Q   Q.    E Q     H       E E E E   Q   E E E E Q
E|-----------------|-----------------|-----------------|-----------------|
B|-----------------|-----------------|-----------------|-----------------|
G|-----------------|-----------------|-----------------|-----------------|
D|-2+------2-2-3-2-|-6---5-----2-3---|-2+------2-2-3-2-|-6---5-----------|
A|-2+------2-2-3-2-|-6---5-----2-3---|-2+------2-2-3-2-|-6---5-----------|
E|-0+------0-0-1-0-|-4---3-----0-1---|-0+------0-0-1-0-|-4---3-----------|
 |
 |
 |
 |
 |
 | H       E E E E   Q   Q.    E Q     H       E E E E   Q   E E E E Q
E|-----------------|-----------------|-----------------|-----------------|
B|-----------------|-----------------|-----------------|-----------------|
G|-----------------|-----------------|-----------------|-----------------|
D|-2+------2-2-3-2-|-6---5-----2-3---|-2+------2-2-3-2-|-6---5-----------|
A|-2+------2-2-3-2-|-6---5-----2-3---|-2+------2-2-3-2-|-6---5-----------|
E|-0+------0-0-1-0-|-4---3-----0-1---|-0+------0-0-1-0-|-4---3-----------|
 |
 |
 |
 |
 |
 | H       E E E E   Q   Q.    E Q     H       E E E E   Q   E E H
G|-----------------|-----------------|-----------------|-----------------|
D|-----------------|-----------------|-----------------|-----------------|
A|-----------------|-----------------|-----------------|-----------------|
E|-0-------0-0-1-0-|-4---3-----0-1---|-0-------0-0-1-0-|-4---3-----------|
B|-----------------|-----------------|-----------------|-----------------|





   |-3-| |-3-| |-3-| |-3-| |-3-| |-3-| |-3-| |-3-|
   S S S S S S S S S S S S S S S S S S S S S S S S
E|------------------------------------------------|
B|------------------------------------------------|
G|------------------------------------------------|
D|------------------------------------------------|
A|------------------------------------------------|
E|-8-8-8-0-0-0-8-8-8-8-8-8-8-8-8-7-7-7-5-5-5-7-7-7|
 |
 |
 |
 |
 | |-3-| |-3-| |-3-| |-3-| |-3-| |-3-| |-3-| |-3-|
 | S S S S S S S S S S S S S S S S S S S S S S S S
E|------------------------------------------------|
B|------------------------------------------------|
G|------------------------------------------------|
D|------------------------------------------------|
A|------------------------------------------------|
E|-8-8-8-0-0-0-8-8-8-8-8-8-8-8-8-7-7-7-5-5-5-7-7-7|
 |
 |
 |
 |
 | |-3-| |-3-| |-3-| |-3-| |-3-| |-3-| |-3-| |-3-|
 | S S S S S S S S S S S S S S S S S S S S S S S S
G|------------------------------------------------|
D|------------------------------------------------|
A|------------------------------------------------|
E|-8-8-8-0-0-0-8-8-8-8-8-8-8-8-8-7-7-7-5-5-5-7-7-7|
B|------------------------------------------------|





   |-3-| |-3-| |-3-| |-3-| |-3-| |-3-| |-3-| |-3-|
   S S S S S S S S S S S S S S S S S S S S S S S S
E|------------------------------------------------|
B|------------------------------------------------|
G|------------------------------------------------|
D|------------------------------------------------|
A|------------------------------------------------|
E|-4-4-4-4-4-4-4-4-4-4-4-4-4-4-4-4-4-4-4-4-4-4-4-4|
 |
 |
 |
 |
 | |-3-| |-3-| |-3-| |-3-| |-3-| |-3-| |-3-| |-3-|
 | S S S S S S S S S S S S S S S S S S S S S S S S
E|------------------------------------------------|
B|------------------------------------------------|
G|------------------------------------------------|
D|------------------------------------------------|
A|------------------------------------------------|
E|-4-4-4-4-4-4-4-4-4-4-4-4-4-4-4-4-4-4-4-4-4-4-4-4|
 |
 |
 |
 |
 | |-3-| |-3-| |-3-| |-3-| |-3-| |-3-| |-3-| |-3-|
 | S S S S S S S S S S S S S S S S S S S S S S S S
G|------------------------------------------------|
D|------------------------------------------------|
A|------------------------------------------------|
E|-4-4-4-4-4-4-4-4-4-4-4-4-4-4-4-4-4-4-4-4-4-4-4-4|
B|------------------------------------------------|





   |-3-| |-3-| |-3-| |-3-| |-3-| |-3-| |-3-| |-3-|
   S S S S S S S S S S S S S S S S S S S S S S S S  SSE Q   H
E|------------------------------------------------|-----------------|
B|------------------------------------------------|-----------------|
G|------------------------------------------------|-----------------|
D|------------------------------------------------|-----------------|
A|------------------------------------------------|-----------------|
E|-8-8-8-0-0-0-8-8-8-8-8-8-8-8-8-7-7-7-5-5-5-7-7-7|-4---------------|
 |
 |
 |
 |
 | |-3-| |-3-| |-3-| |-3-| |-3-| |-3-| |-3-| |-3-|
 | S S S S S S S S S S S S S S S S S S S S S S S S  SSE Q   H
E|------------------------------------------------|-----------------|
B|------------------------------------------------|-----------------|
G|------------------------------------------------|-----------------|
D|------------------------------------------------|-----------------|
A|------------------------------------------------|-----------------|
E|-8-8-8-0-0-0-8-8-8-8-8-8-8-8-8-7-7-7-5-5-5-7-7-7|-4---------------|
 |
 |
 |
 |
 | |-3-| |-3-| |-3-| |-3-| |-3-| |-3-| |-3-| |-3-|
 | S S S S S S S S S S S S S S S S S S S S S S S S  SSE Q   H
G|------------------------------------------------|-----------------|
D|------------------------------------------------|-----------------|
A|------------------------------------------------|-----------------|
E|-8-8-8-0-0-0-8-8-8-8-8-8-8-8-8-7-7-7-5-5-5-7-7-7|-4---------------|
B|------------------------------------------------|-----------------|





   |-3-| |-3-| |-3-| |-3-| |-3-| |-3-| |-3-| |-3-|
   S S S S S S S S S S S S S S S S S S S S S S S S
E|------------------------------------------------|
B|------------------------------------------------|
G|------------------------------------------------|
D|------------------------------------------------|
A|------------------------------------------------|
E|-8-8-8-0-0-0-8-8-8-8-8-8-8-8-8-7-7-7-5-5-5-7-7-7|
 |
 |
 |
 |
 | |-3-| |-3-| |-3-| |-3-| |-3-| |-3-| |-3-| |-3-|
 | S S S S S S S S S S S S S S S S S S S S S S S S
E|------------------------------------------------|
B|------------------------------------------------|
G|------------------------------------------------|
D|------------------------------------------------|
A|------------------------------------------------|
E|-8-8-8-0-0-0-8-8-8-8-8-8-8-8-8-7-7-7-5-5-5-7-7-7|
 |
 |
 |
 |
 | |-3-| |-3-| |-3-| |-3-| |-3-| |-3-| |-3-| |-3-|
 | S S S S S S S S S S S S S S S S S S S S S S S S
G|------------------------------------------------|
D|------------------------------------------------|
A|------------------------------------------------|
E|-8-8-8-0-0-0-8-8-8-8-8-8-8-8-8-7-7-7-5-5-5-7-7-7|
B|------------------------------------------------|





   |-3-| |-3-| |-3-| |-3-| |-3-| |-3-| |-3-| |-3-|
   S S S S S S S S S S S S S S S S S S S S S S S S
E|------------------------------------------------|
B|------------------------------------------------|
G|------------------------------------------------|
D|------------------------------------------------|
A|------------------------------------------------|
E|-4-4-4-4-4-4-4-4-4-4-4-4-4-4-4-4-4-4-4-4-4-4-4-4|
 |
 |
 |
 |
 | |-3-| |-3-| |-3-| |-3-| |-3-| |-3-| |-3-| |-3-|
 | S S S S S S S S S S S S S S S S S S S S S S S S
E|------------------------------------------------|
B|------------------------------------------------|
G|------------------------------------------------|
D|------------------------------------------------|
A|------------------------------------------------|
E|-4-4-4-4-4-4-4-4-4-4-4-4-4-4-4-4-4-4-4-4-4-4-4-4|
 |
 |
 |
 |
 | |-3-| |-3-| |-3-| |-3-| |-3-| |-3-| |-3-| |-3-|
 | S S S S S S S S S S S S S S S S S S S S S S S S
G|------------------------------------------------|
D|------------------------------------------------|
A|------------------------------------------------|
E|-4-4-4-4-4-4-4-4-4-4-4-4-4-4-4-4-4-4-4-4-4-4-4-4|
B|------------------------------------------------|





   |-3-| |-3-| |-3-| |-3-| |-3-| |-3-| |-3-| |-3-|
   S S S S S S S S S S S S S S S S S S S S S S S S
E|------------------------------------------------|
B|------------------------------------------------|
G|------------------------------------------------|
D|------------------------------------------------|
A|------------------------------------------------|
E|-8-8-8-0-0-0-8-8-8-8-8-8-8-8-8-7-7-7-5-5-5-7-7-7|
 |
 |
 |
 |
 | |-3-| |-3-| |-3-| |-3-| |-3-| |-3-| |-3-| |-3-|
 | S S S S S S S S S S S S S S S S S S S S S S S S
E|------------------------------------------------|
B|------------------------------------------------|
G|------------------------------------------------|
D|------------------------------------------------|
A|------------------------------------------------|
E|-8-8-8-0-0-0-8-8-8-8-8-8-8-8-8-7-7-7-5-5-5-7-7-7|
 |
 |
 |
 |
 | |-3-| |-3-| |-3-| |-3-| |-3-| |-3-| |-3-| |-3-|
 | S S S S S S S S S S S S S S S S S S S S S S S S
G|------------------------------------------------|
D|------------------------------------------------|
A|------------------------------------------------|
E|-8-8-8-0-0-0-8-8-8-8-8-8-8-8-8-7-7-7-5-5-5-7-7-7|
B|------------------------------------------------|





   |-3-| |-3-| |-3-| |-3-| |-3-| |-3-| |-3-| |-3-|
   S S S S S S S S S S S S S S S S S S S S S S S S
E|------------------------------------------------|
B|------------------------------------------------|
G|------------------------------------------------|
D|------------------------------------------------|
A|------------------------------------------------|
E|-4-4-4-4-4-4-4-4-4-4-4-4-1-1-1-1-1-1-0-0-0-0-0-0|
 |
 |
 |
 |
 | |-3-| |-3-| |-3-| |-3-| |-3-| |-3-| |-3-| |-3-|
 | S S S S S S S S S S S S S S S S S S S S S S S S
E|------------------------------------------------|
B|------------------------------------------------|
G|------------------------------------------------|
D|------------------------------------------------|
A|------------------------------------------------|
E|-4-4-4-4-4-4-4-4-4-4-4-4-1-1-1-1-1-1-0-0-0-0-0-0|
 |
 |
 |
 |
 | |-3-| |-3-| |-3-| |-3-| |-3-| |-3-| |-3-| |-3-|
 | S S S S S S S S S S S S S S S S S S S S S S S S
G|------------------------------------------------|
D|------------------------------------------------|
A|------------------------------------------------|
E|-4-4-4-4-4-4-4-4-4-4-4-4-1-1-1-1-1-1-0-0-0-0-0-0|
B|------------------------------------------------|






     S T TS  S S  S S S S  S S S S S S S  S T TS  S S  S S S S  S S S S S S S
E||-------------------------------------|--------------------------------------||
B||-------------------------------------|--------------------------------------||
G||*-8-9-8---8--------------------------|-7-8-7---7---------------------------*||
D||*------10---10-9-7-9-10-9-7-6-7-6----|------10---10-9-6-9-10-9-7-6-7-6-----*||
A||----------------------------------8-7|---------------------------------8-7--||
E||-------------------------------------|--------------------------------------||
 |
 |
 |
 |
 |
 |   S T TS  S S  S S S S  S S S S S S S  S T TS  S S  S S S S  S S S S S S S
E||-------------------------------------|--------------------------------------||
B||-------------------------------------|--------------------------------------||
G||*-8-9-8---8--------------------------|-7-8-7---7---------------------------*||
D||*------10---10-9-7-9-10-9-7-6-7-6----|------10---10-9-6-9-10-9-7-6-7-6-----*||
A||----------------------------------8-7|---------------------------------8-7--||
E||-------------------------------------|--------------------------------------||
 |
 |
 |
 |
 |
 |   S S  S  S S  S S S S  S S S S S S S  S S  S  S S  S S S S  S S S S S S S
G||-------------------------------------|--------------------------------------||
D||*------------------------------------|-------------------------------------*||
A||*------------------------------------|-----------------------------3-3-3-3-*||
E||--0-0--0--0-0--0-0-0-0---------------|--------------------------------------||
B||------------------------4-5-7-8-7-5-4|-1-1--1--1-1--1-1-1-0--0-0-0----------||





  6/83-| |-3--| |-3--| |-3-| |-3--| |-3--|  12/8
   S S S S S  S S S  S S S S S S  S S S  S   H.          H.
E|-----------------------------------------|-------------------------|
B|-----------------------------------------|-------------------------|
G|-----------------------------------------|-5-----------5-----------|
D|--------------9-11-13-------------9-11-13|-7-----------9-----------|
A|-------8-10-12-------------8-10-12-------|-7-----------7-----------|
E|-7-9-11--------------7-9-11--------------|-5-----------5-----------|
 |
 |
 |
 |
 | |-3-| |-3--| |-3--| |-3-| |-3--| |-3--|
 | S S S S S  S S S  S S S S S S  S S S  S   H.          H.
E|-----------------------------------------|-------------------------|
B|-----------------------------------------|-------------------------|
G|-----------------------------------------|-5-----------5-----------|
D|--------------9-11-13-------------9-11-13|-7-----------9-----------|
A|-------8-10-12-------------8-10-12-------|-7-----------7-----------|
E|-7-9-11--------------7-9-11--------------|-5-----------5-----------|
 |
 |
 |
 |
 | |-3-| |-3--| |-3--| |-3-| |-3--| |-3--|
 | S S S S S  S S S  S S S S S S  S S S  S   Q   Q   Q   Q   Q   Q
G|-----------------------------------------|-------------------------|
D|--------------9-11-13-------------9-11-13|-------------------------|
A|-------8-10-12-------------8-10-12-------|-------------------------|
E|-7-9-11--------------7-9-11--------------|-5---5---5---5---5---5---|
B|-----------------------------------------|-------------------------|






   H.          H.            H.          H.            H.          H.
E|-------------------------|-------------------------|-------------------------|
B|-------------------------|-------------------------|-------------------------|
G|-5-----------5-----------|-5-----------4-----------|-5-----------4-----------|
D|-7-----------9-----------|-6-----------6-----------|-6-----------6-----------|
A|-7-----------7-----------|-6-----------5-----------|-6-----------5-----------|
E|-5-----------5-----------|-4-----------4-----------|-4-----------4-----------|
 |
 |
 |
 |
 |
 | H.          H.            H.          H.            H.          H.
E|-------------------------|-------------------------|-------------------------|
B|-------------------------|-------------------------|-------------------------|
G|-5-----------5-----------|-5-----------4-----------|-5-----------4-----------|
D|-7-----------9-----------|-6-----------6-----------|-6-----------6-----------|
A|-7-----------7-----------|-6-----------5-----------|-6-----------5-----------|
E|-5-----------5-----------|-4-----------4-----------|-4-----------4-----------|
 |
 |
 |
 |
 |
 | Q   Q   Q   Q   Q   Q     Q   Q   Q   Q   Q   Q     Q   Q   Q   Q   Q   Q
G|-------------------------|-------------------------|-------------------------|
D|-------------------------|-------------------------|-------------------------|
A|-------------------------|-------------------------|-------------------------|
E|-5---5---5---5---5---5---|-4---4---4---4---4---4---|-4---4---4---4---4---4---|
B|-------------------------|-------------------------|-------------------------|






   H.               H.                 H.               H.
E|-----------------------------------|-----------------------------------|
B|-----------------------------------|-----------------------------------|
G|-5----------------5----------------|-5----------------5----------------|
D|-7----------------9----------------|-7----------------9----------------|
A|-7----------------7----------------|-7----------------7----------------|
E|-5----------------5----------------|-5----------------5----------------|
 |
 |
 |
 |
 |
 | S S SSS SSS SSS SS S SSS SSS SSS S  S S SSS SSS SSS SS S SSS SSS SSS S
E|-----------------------------------|-----------------------------------|
B|-----------------------------------|-----------------------------------|
G|------5-------4--------5-------4---|------5-------4--------5-------4---|
D|-----------------------------------|-----------------------------------|
A|---7-8-8-7-7-8-8-7--7-8-8-7-7-8-8-7|---7-8-8-7-7-8-8-7--7-8-8-7-7-8-8-7|
E|-5--------5-------5--------5-------|-5--------5-------5--------5-------|
 |
 |
 |
 |
 |
 | Q     Q     Q    Q     Q     Q      Q     Q     Q    Q     Q     Q
G|-----------------------------------|-----------------------------------|
D|-----------------------------------|-----------------------------------|
A|-----------------------------------|-----------------------------------|
E|-5-----5-----5----5-----5-----5----|-5-----5-----5----5-----5-----5----|
B|-----------------------------------|-----------------------------------|






   H.               H.                 H.               H.
E|-----------------------------------|-----------------------------------|
B|-----------------------------------|-----------------------------------|
G|-5----------------4----------------|-5----------------4----------------|
D|-6----------------6----------------|-6----------------6----------------|
A|-6----------------5----------------|-6----------------5----------------|
E|-4----------------4----------------|-4----------------4----------------|
 |
 |
 |
 |
 |
 | S S SSS SSS SSS SS S SSS SSS SSS S  S S SSS SSS SSS SS S SSS SSS SSS S
E|-----------------------------------|-----------------------------------|
B|-----------------------------------|-----------------------------------|
G|------5-------4--------5-------4---|------5-------4--------5-------4---|
D|-----------------------------------|-----------------------------------|
A|---5-7-7-5-5-7-7-5--5-7-7-5-5-7-7-5|---5-7-7-5-5-7-7-5--5-7-7-5-5-7-7-5|
E|-4--------4-------4--------4-------|-4--------4-------4--------4-------|
 |
 |
 |
 |
 |
 | Q     Q     Q    Q     Q     Q      Q     Q     Q    Q     Q     Q
G|-----------------------------------|-----------------------------------|
D|-----------------------------------|-----------------------------------|
A|-----------------------------------|-----------------------------------|
E|-4-----4-----4----4-----4-----4----|-4-----4-----4----4-----4-----4----|
B|-----------------------------------|-----------------------------------|






   SS SSS SSS SSS SSS SSS SSS SSS S  SS SSS SSS SSS SSS SSS SSS SSS S
E|---------------------------------|---------------------------------|
B|---------------------------------|---------------------------------|
G|-----5-------4-------5-------4---|-----5-------4-------5-------4---|
D|---------------------------------|---------------------------------|
A|--7-8-8-7-7-8-8-7-7-8-8-7-7-8-8-7|--5-7-7-5-5-7-7-5-5-7-7-5-5-7-7-5|
E|-5-------5-------5-------5-------|-4-------4-------4-------4-------|
 |
 |
 |
 |
 |
 | SS SSS SSS SSS SSS SSS SSS SSS S  SS SSS SSS SSS SSS SSS SSS SSS S
E|---------------------------------|---------------------------------|
B|---------------------------------|---------------------------------|
G|-----5-------4-------5-------4---|-----5-------4-------5-------4---|
D|---------------------------------|---------------------------------|
A|--7-8-8-7-7-8-8-7-7-8-8-7-7-8-8-7|--5-7-7-5-5-7-7-5-5-7-7-5-5-7-7-5|
E|-5-------5-------5-------5-------|-4-------4-------4-------4-------|
 |
 |
 |
 |
 |
 | SS SSS SSS SSS SSS SSS SSS SSS S  SS SSS SSS SSS SSS SSS SSS SSS S
G|---------------------------------|---------------------------------|
D|---------------------------------|---------------------------------|
A|--7-8-8-7-7-8-8-7-7-8-8-7-7-8-8-7|--5-7-7-5-5-7-5-7-5-7-7-5-5-7-5-7|
E|-5---8---5---7---5---8---5---7---|-4---8---4---7---4---8---4---7---|
B|---------------------------------|---------------------------------|






   SS SSS SSS SSS SSS SSS SSS SSS S  SS SSS SSS SSS SSS SSS SSS SSS S
E|---------------------------------|---------------------------------|
B|---------------------------------|---------------------------------|
G|-----5-------4-------5-------4---|-----5-------4-------5-------4---|
D|---------------------------------|---------------------------------|
A|--7-8-8-7-7-8-8-7-7-8-8-7-7-8-8-7|--5-7-7-5-5-7-7-5-5-7-7-5-5-7-7-5|
E|-5-------5-------5-------5-------|-4-------4-------4-------4-------|
 |
 |
 |
 |
 |
 | SS SSS SSS SSS SSS SSS SSS SSS S  SS SSS SSS SSS SSS SSS SSS SSS S
E|---------------------------------|---------------------------------|
B|---------------------------------|---------------------------------|
G|-----5-------4-------5-------4---|-----5-------4-------5-------4---|
D|---------------------------------|---------------------------------|
A|--7-8-8-7-7-8-8-7-7-8-8-7-7-8-8-7|--5-7-7-5-5-7-7-5-5-7-7-5-5-7-7-5|
E|-5-------5-------5-------5-------|-4-------4-------4-------4-------|
 |
 |
 |
 |
 |
 | SS SSS SSS SSS SSS SSS SSS SSS S  SS SSS SSS SSS SSS SSS SSS SSS S
G|---------------------------------|---------------------------------|
D|---------------------------------|---------------------------------|
A|--7-8-8-7-7-8-8-7-7-8-8-7-7-8-8-7|--5-7-7-5-5-7-5-7-5-7-7-5-5-7-5-7|
E|-5---8---5---7---5---8---5---7---|-4---8---4---7---4---8---4---7---|
B|---------------------------------|---------------------------------|





  8/8|--3--|  |--3--|  |--3--|  |--3--|  |--3--|  |--3--|  |--3--|  |--3--|
     S  S  S  S  S  S  S  S  S  S  S  S  S  S  S  S  S  S  S  S  S  S  S  S
E||-------------------------------------------------------------------------|
B||-------------------------------------------------------------------------|
G||*------------------------------------------------------------------------|
D||*------------------------------------------------------------------------|
A||-------------------------------------------------------------------------|
E||--5--5--5--5--5--5--5--5--5--5--5--5--7--7--7--7--7--7--8--8--8--8--8--8-|
 |
 |
 |
 |
 |   |------3-------|  |------3-------|  |------3-------|  |------3-------|
 |   S  S  S  S  S  S  S  S  S  S  S  S  S  S  S  S  S  S  S  S  S  S  S  S
E||-----------------12-17-12----------12-20-17------------------------------|
B||--------------13----------13----13----------17---------------------------|
G||*----------14----------------14----------------17----------------------17|
D||*-------14----------------------------------------19----------------19---|
A||--12-15----------------------------------------------19----------19------|
E||--------------------------------------------------------20-17-20---------|
 |
 |
 |
 |
 |   |--3--|  |--3--|  |--3--|  |--3--|  |--3--|  |--3--|  |--3--|  |--3--|
 |   S  S  S  S  S  S  S  S  S  S  S  S  S  S  S  S  S  S  S  S  S  S  S  S
G||-------------------------------------------------------------------------|
D||*------------------------------------------------------------------------|
A||*------------------------------------------------------------------------|
E||--5--5--5--5--5--5--5--5--5--5--5--5--7--7--7--7--7--7--8--8--8--8--8--8-|
B||-------------------------------------------------------------------------|





   |--3--|  |--3--|  |--3--|  |--3--|  |--3--|  |--3--|  |--3--|  |--3--|
   S  S  S  S  S  S  S  S  S  S  S  S  S  S  S  S  S  S  S  S  S  S  S  S
E|------------------------------------------------------------------------|
B|------------------------------------------------------------------------|
G|------------------------------------------------------------------------|
D|------------------------------------------------------------------------|
A|------------------------------------------------------------------------|
E|-4--4--4--4--4--4--4--4--4--4--4--4--8--8--8--8--8--8--4--4--4--4--4--4-|
 |
 |
 |
 |
 | |------3-------|  |------3-------|  |------3-------|  |------3-------|
 | S  S  S  S  S  S  S  S  S  S  S  S  S  S  S  S  S  S  S  S  S  S  S  S
E|-------------------16---------------------------------------------------|
B|----------------16----16------------------------------------------------|
G|-------------17----------17-------------------------------------17-18-20|
D|----------18----------------18-------------------------17-18-20---------|
A|-------18----------------------18-------------16-18-20------------------|
E|-16-20----------------------------20-16-18-20---------------------------|
 |
 |
 |
 |
 | |--3--|  |--3--|  |--3--|  |--3--|  |--3--|  |--3--|  |--3--|  |--3--|
 | S  S  S  S  S  S  S  S  S  S  S  S  S  S  S  S  S  S  S  S  S  S  S  S
G|------------------------------------------------------------------------|
D|------------------------------------------------------------------------|
A|------------------------------------------------------------------------|
E|-4--4--4--4--4--4--4--4--4--4--4--4--8--8--8--8--8--8--4--4--4--4--4--4-|
B|------------------------------------------------------------------------|





   |-3--|  |-3--| |-3--| |-3--| |--3--| |--3--| |--3--| |--3--|
   S S  S  S  S S S  S S S  S S S  S  S S  S  S S  S  S S  S  S
E|-------------------------------------------------------------|
B|-------------------------------------------------------------|
G|-------------------------------------------------------------|
D|-------------------------------------------------------------|
A|-------------------------------------------------------------|
E|-1-1--1--1--1-1-1--1-1-1--1-1-1--1--1-1--1--1-1--1--1-1--1--1|
 |
 |
 |
 |
 | |-----3------| |-----3-----| |------3------| |------3------|
 | S S  S  S  S S S  S S S  S S S  S  S S  S  S S  S  S S  S  S
E|--------------8-13-8--------8-15-13-8-16-13-8-18-13-8-16-13-8|
B|------------9--------9----9----------------------------------|
G|---------10------------10------------------------------------|
D|------10-----------------------------------------------------|
A|-8-11--------------------------------------------------------|
E|-------------------------------------------------------------|
 |
 |
 |
 |
 | |-3--|  |-3--| |-3--| |-3--| |--3--| |--3--| |--3--| |--3--|
 | S S  S  S  S S S  S S S  S S S  S  S S  S  S S  S  S S  S  S
G|-------------------------------------------------------------|
D|-------------------------------------------------------------|
A|-------------------------------------------------------------|
E|-1-1--1--1--1-1-1--1-1-1--1-1-1--1--1-1--1--1-1--1--1-1--1--1|
B|-------------------------------------------------------------|





   |-3--| |-3--|  |-3--|  |-3-| |--3--|  |--3--|  |--3--|  |--3--|
   S  S S S S  S  S S  S  S S S S  S  S  S  S  S  S  S  S  S  S  S
E|-----------------------------------------------------------------|
B|-----------------------------------------------------------------|
G|-----------------------------------------------------------------|
D|-----------------------------------------------------------------|
A|-4--4-4-4-4--4--4-4--4--4-4-4-4--4--4--4--4--4--4--4--4--4--4--4-|
E|-----------------------------------------------------------------|
 |
 |
 |
 |
 | |-----3-----|  |-----3-----| |------3-------|  |------3-------|
 | S  S S S S  S  S S  S  S S S S  S  S  S  S  S  S  S  S  S  S  S
E|-12-9-----------------------9-16-12----------------------------12|
B|------9-------------------9---------14----------------------14---|
G|--------9---------------9--------------13----------------13------|
D|----------11---------11-------------------14----------14---------|
A|-------------11---11-------------------------16-11-16------------|
E|----------------9------------------------------------------------|
 |
 |
 |
 |
 | |-3--| |-3--|  |-3--|  |-3-| |--3--|  |--3--|  |--3--|  |--3--|
 | S  S S S S  S  S S  S  S S S S  S  S  S  S  S  S  S  S  S  S  S
G|-----------------------------------------------------------------|
D|-----------------------------------------------------------------|
A|-----------------------------------------------------------------|
E|-----------------------------------------------------------------|
B|-2--2-2-2-2--2--2-2--2--2-2-2-2--2--2--2--2--2--2--2--2--2--2--2-|





   |--3--|  |--3--|  |--3--|  |--3--|  |--3--|  |--3--|  |--3--|  |--3--|
   S  S  S  S  S  S  S  S  S  S  S  S  S  S  S  S  S  S  S  S  S  S  S  S
E|------------------------------------------------------------------------|
B|------------------------------------------------------------------------|
G|------------------------------------------------------------------------|
D|------------------------------------------------------------------------|
A|------------------------------------------------------------------------|
E|-5--5--5--5--5--5--5--5--5--5--5--5--7--7--7--7--7--7--8--8--8--8--8--8-|
 |
 |
 |
 |
 | |------3-------|  |------3-------|  |------3-------|  |------3-------|
 | S  S  S  S  S  S  S  S  S  S  S  S  S  S  S  S  S  S  S  S  S  S  S  S
E|----------------12-17-12----------12-20-17------------------------------|
B|-------------13----------13----13----------17---------------------------|
G|----------14----------------14----------------17----------------------17|
D|-------14----------------------------------------19----------------19---|
A|-12-15----------------------------------------------19----------19------|
E|-------------------------------------------------------20-17-20---------|
 |
 |
 |
 |
 | |--3--|  |--3--|  |--3--|  |--3--|  |--3--|  |--3--|  |--3--|  |--3--|
 | S  S  S  S  S  S  S  S  S  S  S  S  S  S  S  S  S  S  S  S  S  S  S  S
G|------------------------------------------------------------------------|
D|------------------------------------------------------------------------|
A|------------------------------------------------------------------------|
E|-5--5--5--5--5--5--5--5--5--5--5--5--7--7--7--7--7--7--8--8--8--8--8--8-|
B|------------------------------------------------------------------------|





   |--3--|  |--3--|  |--3--|  |--3--|  |--3--|  |--3--|  |--3--|  |--3--|
   S  S  S  S  S  S  S  S  S  S  S  S  S  S  S  S  S  S  S  S  S  S  S  S
E|------------------------------------------------------------------------|
B|------------------------------------------------------------------------|
G|------------------------------------------------------------------------|
D|------------------------------------------------------------------------|
A|------------------------------------------------------------------------|
E|-4--4--4--4--4--4--4--4--4--4--4--4--8--8--8--8--8--8--4--4--4--4--4--4-|
 |
 |
 |
 |
 | |------3-------|  |------3-------|  |------3-------|  |------3-------|
 | S  S  S  S  S  S  S  S  S  S  S  S  S  S  S  S  S  S  S  S  S  S  S  S
E|-------------------16---------------------------------------------------|
B|----------------16----16------------------------------------------------|
G|-------------17----------17-------------------------------------17-18-20|
D|----------18----------------18-------------------------17-18-20---------|
A|-------18----------------------18-------------16-18-20------------------|
E|-16-20----------------------------20-16-18-20---------------------------|
 |
 |
 |
 |
 | |--3--|  |--3--|  |--3--|  |--3--|  |--3--|  |--3--|  |--3--|  |--3--|
 | S  S  S  S  S  S  S  S  S  S  S  S  S  S  S  S  S  S  S  S  S  S  S  S
G|------------------------------------------------------------------------|
D|------------------------------------------------------------------------|
A|------------------------------------------------------------------------|
E|-4--4--4--4--4--4--4--4--4--4--4--4--8--8--8--8--8--8--4--4--4--4--4--4-|
B|------------------------------------------------------------------------|





   |-3--|  |-3--| |-3--| |-3--| |--3--| |--3--| |--3--| |--3--|
   S S  S  S  S S S  S S S  S S S  S  S S  S  S S  S  S S  S  S
E|-------------------------------------------------------------|
B|-------------------------------------------------------------|
G|-------------------------------------------------------------|
D|-------------------------------------------------------------|
A|-------------------------------------------------------------|
E|-1-1--1--1--1-1-1--1-1-1--1-1-1--1--1-1--1--1-1--1--1-1--1--1|
 |
 |
 |
 |
 | |-----3------| |-----3-----| |------3------| |------3------|
 | S S  S  S  S S S  S S S  S S S  S  S S  S  S S  S  S S  S  S
E|--------------8-13-8--------8-15-13-8-16-13-8-18-13-8-16-13-8|
B|------------9--------9----9----------------------------------|
G|---------10------------10------------------------------------|
D|------10-----------------------------------------------------|
A|-8-11--------------------------------------------------------|
E|-------------------------------------------------------------|
 |
 |
 |
 |
 | |-3--|  |-3--| |-3--| |-3--| |--3--| |--3--| |--3--| |--3--|
 | S S  S  S  S S S  S S S  S S S  S  S S  S  S S  S  S S  S  S
G|-------------------------------------------------------------|
D|-------------------------------------------------------------|
A|-------------------------------------------------------------|
E|-1-1--1--1--1-1-1--1-1-1--1-1-1--1--1-1--1--1-1--1--1-1--1--1|
B|-------------------------------------------------------------|





   |-3--| |-3--|  |-3--|  |-3-| |--3--|  |--3--|  |--3--|  |--3--|
   S  S S S S  S  S S  S  S S S S  S  S  S  S  S  S  S  S  S  S  S
E|-------------------------------------------------------------------||
B|-------------------------------------------------------------------||
G|------------------------------------------------------------------*||
D|------------------------------------------------------------------*||
A|-4--4-4-4-4--4--4-4--4--4-4-4-4--4--4--4--4--4--4--4--4--4--4--4---||
E|-------------------------------------------------------------------||
 |
 |
 |
 |
 | |-----3-----|  |-----3-----| |------3-------|  |------3-------|
 | S  S S S S  S  S S  S  S S S S  S  S  S  S  S  S  S  S  S  S  S
E|-12-9-----------------------9-16-12----------------------------12--||
B|------9-------------------9---------14----------------------14-----||
G|--------9---------------9--------------13----------------13-------*||
D|----------11---------11-------------------14----------14----------*||
A|-------------11---11-------------------------16-11-16--------------||
E|----------------9--------------------------------------------------||
 |
 |
 |
 |
 | |-3--| |-3--|  |-3--|  |-3-| |--3--|  |--3--|  |--3--|  |--3--|
 | S  S S S S  S  S S  S  S S S S  S  S  S  S  S  S  S  S  S  S  S
G|-------------------------------------------------------------------||
D|------------------------------------------------------------------*||
A|------------------------------------------------------------------*||
E|-------------------------------------------------------------------||
B|-2--2-2-2-2--2--2-2--2--2-2-2-2--2--2--2--2--2--2--2--2--2--2--2---||




Created using Sibelius - http://www.sibelius.com/
Tap to rate this tab
 
# A B C D E F G H I J K L M N O P Q R S T U V W X Y Z