Song name
# A B C D E F G H I J K L M N O P Q R S T U V W X Y Z

Misc Unsigned Bands - Weebl - Strawberry Pancakes tab

STRAWBERRY PANCAKES

e-------------------------------------------------|I
B--------------------------------1-1--------------|I
G-----------0-------0-------0-----------------I---|  2x
D--2----2-------2-------2-------------------------|I
A-----3-------3-------3---------------------------|I
E-------------------------------------------------|I

e------------------------------------------------|I
B------------------------------------------------|I
G------------------------------------------------|I
D--------0-2-0-0-0-0-0-0-0-0---------------------|I
A-----2------------------------------------------|I
E--3---------------------------------------------|I

e-------------------------------------------------|I
B--------------------------------1-1--------------|I
G-----------0-------0-------0-----------------I---|  2x
D--2----2-------2-------2-------------------------|I
A-----3-------3-------3---------------------------|I
E-------------------------------------------------|I

e--------------------------------------------------|I
B----------------------0-3-0-----------------------|I
G-----------0-------0--------------------------I---|  2x
D--------0-------0---------------------------------|I
A-----2-------2------------------------------------|I
E--3-----------------------------------------------|I

C
Here I come on my bike, I'm looking for pancakes
C                                                     G
Pancakes pancakes pancakes oh yum
G
Give me your pancakes!
C
Here come on my lovely girl's bike, it's a girl's bike
C                                                         G
You can tell cause the crossbar's really long
G
I'm riding my bike into town
Tap to rate this tab
# A B C D E F G H I J K L M N O P Q R S T U V W X Y Z