Song name
# A B C D E F G H I J K L M N O P Q R S T U V W X Y Z

Misc Unsigned Bands - Tragafuegos - Casate Conmigo tab

Esta parte de la cancion se toca con sonido acustico...
b=bend
/=slide
h=hammer on
p=pull off
rb=rebend
x=mute with fretboard hand and hit it with picking hand
~=vibrato

e-----0--0-0---0------------------0--0-0---0---------------------|
b-----0--0-0---0------------------0--0-0---0---------------------|
g--4--4--4-4-4-4---------------4--4--4-4-4-4---------------------|
d--4--4--4-4-4-4--2-2-2-2-2-2--4--4--4-4-4-4-6-6-4-4-4-4-4-4-4-4-|
a--2--2--2-2-2-2--2-2-2-2-2-2--2--2--2-2-2-2-6-6-4-4-4-4-4-4-4-4-|
e--x--x--x-x-x-x--0-0-0-0-0-0--x--x--x-x-x-x-4-4-2-2-2-2-2-2-2-2-|

e-----0--0-0---0-------------|
b-----0--0-0---0-------------|
g--4--4--4-4-4-4-------------|
d--4--4--4-4-4-4-6-6-4-4-4-4-|
a--2--2--2-2-2-2-6-6-4-4-4-4-|
e--x--x--x-x-x-x-4-4-2-2-2-2-|

i luego con sonido de rock (distortion)

e-----
b-----
g-----
d--2~-
a--2~-
e--0~-
http://www.myspace.com/tragafuegos
Tap to rate this tab
# A B C D E F G H I J K L M N O P Q R S T U V W X Y Z