Song name
# A B C D E F G H I J K L M N O P Q R S T U V W X Y Z

Misc Unsigned Bands - The Battle For Existence - As Bullets Collide tab

Help us improve GuitareTab! Take a short survey!
As Bullets Collide
by The Battle For Existence
www.myspace.com/cosanostrany

Drop D tuning
* = palm muted

I am the guitarist of this band so tabs are accurate

Intro
e-----------------------------------------------|
B-----------------------------------------------|
G-------------------8------10-------------------|
D-----5------8------8-16x--10-16x---------------|
A-----5-16x--8-16x--6------8--------------------|
D-----5------8----------------------------------|

Verse
e-----------------------------------------------|
B-----------------------------------------------|
G------------------8-----10---------------------|
D-----5------8-----8-16x-10-16x-----------------|
A-----5-16x--8-16x-6-----8----------------------|
D-----5------8----------------------------------|
     *************************

e-------------------------------------------------------------|
B-------------------------------------------------------------|
G-----------------------------88x88-88x88-1010x1010-1010x1010-|
D-----55x55-55x55-88x88-88x88-88x88-88x88-1010x1010-1010x1010-|
A-----55x55-55x55-88x88-88x88-66x66-66x66-8 8 x8 8 -8 8 x8 8--|
D-----55x55-55x55-88x88-88x88---------------------------------|

e-----------------------------------------------|
B-----------------------------------------------|
G-------------------8-----10--------------------|
D-----5------8------8-16x-10-16x---3------------|
A-----5-16x--8-16x--6-----8--------3-16x--------|
D-----5------8---------------------3------------|
     ***********************************

Chorus
e-----------------------------------------------|
B-----------------------------------------------|
G-------------------8------10-------------------|
D-----5------8------8-16x--10-16x---------------| x 2
A-----5-16x--8-16x--6------8--------------------|
D-----5------8----------------------------------|

Verse 2 (second half only, first part only bass)
e-----------------------------------------------|
B-----------------------------------------------|
G-------------------8-----10--------------------|
D-----5------8------8-16x-10-16x----------------|
A-----5-16x--8-16x--6-----8---------------------|
D-----5------8----------------------------------|
     ***********************************

Chorus
e-----------------------------------------------|
B-----------------------------------------------|
G-------------------8------10-------------------|
D-----5------8------8-16x--10-16x---------------| x 2
A-----5-16x--8-16x--6------8--------------------|
D-----5------8----------------------------------|

Bridge (Guitar 1)
e-----------------------------------------------------------------|
G-----------------------------------------------------------------|
B---------5-7-------5-7-------5-7--7h8h7-5------------------------|
D---5-7-8-----5-7-8-----5-7-8--------------8-7------------  ------|
A---------------------------------------------------------    ----|
D---------------------------------------------------------      --|

                                                                  -  2x

e---------------------------------------------------------      --|
G---------------------------------------------------------    ----|
B---------5-7-5------------5-7-5------------5-7-7h8h7-----  ------|
D---5-7-8-------8-7--5-7-8-------8-7--5-7-8-----------8-7---------|
A-----------------------------------------------------------------|
D-----------------------------------------------------------------|

Bridge (Guitar 2)
e-----------------------------------------------------------|
G-----------------------------------------------------------|
B-----------------------------------------------------------|
D----88-8--8--8---77-7--7--7--55-5--5--5--------------------|
A-----------------------------------------------------------|
D--55--5-55-55--33--3-33-33-11--1-11-11-0000000-10-8-7-88---|  2x

Breakdown (Guitars 1 & 2)
e--------------------------------------------------------|
G--------------------------------------------------------|
B--------------------------------------------------------|
D--5-0-3-5-0-3-5-0-3-5-0-3-5-----------------------------|
A--5-0-3-5-0-3-5-0-3-5-0-3-5-----------------------------|
D--5-0-3-5-0-3-5-0-3-5-0-3-5-----------------------------|

Bass break

e--------------------------------------------------------|
G--------------------------------------------------------|
B--------------------------------------------------------|
D--5-0-3-5-0-3-5-0-3-5-0-3-5-----------------------------|    x 7
A--5-0-3-5-0-3-5-0-3-5-0-3-5-----------------------------|
D--5-0-3-5-0-3-5-0-3-5-0-3-5-----------------------------|

(Guitar 1)

e--------------------------------------------------------|
G--------------------------------------------------------|
B-----------5-7-7h8h7------------------------------------|
D-----5-7-8-----------8-7--------------------------------|
A--------------------------------------------------------|
D--------------------------------------------------------|

Chorus/Outro
e-----------------------------------------------|
B-----------------------------------------------|
G-------------------8------10-------------------|
D-----5------8------8-16x--10-16x---------------|   x 4
A-----5-16x--8-16x--6------8--------------------|
D-----5------8----------------------------------|
Related for The Battle For Existence - As Bullets Collide tab