Song name
# A B C D E F G H I J K L M N O P Q R S T U V W X Y Z

Misc Unsigned Bands - Sacred Obsession - Un-named tab

SACRED OBSESSION  -  UN-NAMED


h - hammer on
> - hold
pm.. - palm mute

------------------------------------------------------|
------------------------------------------------------|
------------------------------------------------------|  (riff A)
------------------------------------------------------|
------7-h8-7-5-----7-h8-7-5-----7-h8-7-9-----7-h8-7-5-|
--0-0----------0-0----------0-0----------0-0----------|
  pm.          pm.          pm.          pm.

------------------------------------------------------|
------------------------------------------------------|
------------------------------------------------------|  (riff B)
----------10>-----------------------------------------|
--8>------8>>-------10>-------12--12--12>-------------|
--8>----------------10>-------12--12--12>-------------|


------------------------------------------------------|
------------------------------------------------------|
------------------------------------------------------|  (riff C)
------7>-----5>----4>--3>-----------------------------|
0>----5>-----3>----2>--1>-----------------------------|
0>----------------------------------------------------|

                                      last time
------------------------------  ------------------------|
------------------------------  ------------------------|
------------------------------  ------------------------|  (riff D)
-------7>-----5>--4>-3>-------  -----7>-----5-5-5>------|
-------5>-----3>--2>-1>-------  -----5>-----3-3-3>------|
-0--0-----0-0-----------------  -0--0---0-0-------------|
pm...     pm.                    pm..   pm.
                                      last time
-----------------------------  ----------------------------|
-----------------------------  ----------------------------|
-----------------------------  ----------------------------|  (riff E)
------7>-------5>-4>-3>------  ------7>-------5>--5>--5----|
------5>-------3>-2>-1>------  ------5>-------3>--3>--3----|
0-0-0----0-0-0---------------  0-0-0----0-0-0-----------0--|
pm...    pm...                 pm...    pm...

-----???--------------------------------------------------|
-----???--------------------------------------------------|
-----???--------------------------------------------------|  (riff F)
-----???--------------------------------------------------|
-----???------------8>---7>--8>-7>------------------------|
-0-0-???--0-0>------8>---7>--8>-7>------------------------|


  sequence
************
riff A  x1
riff B  x4
riff A  x4
riff B  x4
riff C  x2        H E A V Y   M E T A L   R U L E S ! ! !
riff D  x4
riff E  x4
riff F  x2
riff A  x4
riff B  x4
riff A  x1          (tabbed by Jack Smith)
Tap to rate this tab
# A B C D E F G H I J K L M N O P Q R S T U V W X Y Z