Song name
# A B C D E F G H I J K L M N O P Q R S T U V W X Y Z

Misc Unsigned Bands - Blue Ridge Brothers - Summer Skin Acoustic tab

-------------------------------------------------------------------------------
			    SUMMER SKIN ACOUSTIC - Blue Ridge Brothers
-------------------------------------------------------------------------------
Tabbed by: Topher
Email: blueridgebrothers@yahoo.com
www.myspace.com/blueridgebrothers


Tuning: Standard

Intro
e|----xxxxxxxx-----------------|
B|----xxxxxxxx-----------------|
G|----xxxxxxxx-----------------|
D|----xxxxxxxx-----------------|
A|----xxxxxxxx-----------------|
E|----xxxxxxxx-----------------|

Verse 1
e|---------------------------------------------------------|
B|---------------------------------------------------------|
G|-----------------------------77777777--------------------|
D|--77777777-77777777-44444444-77777777--------------------|   7x
A|--77777777-77777777-44444444-55555555--------------------|
E|--55555555-44444444-22222222-----------------------------|
  Your skins..so soft...... so soft i can't hold on


e|---------------------------------------------------------|
B|---------------------------------------------------------|
G|-----------------------------7---------------------------|
D|--7-------7--------4---------7---------------------------|   2x
A|--7-------7--------4---------5---------------------------|
E|--5-------4--------2-------------------------------------|

Chorus
e|---------------------------------------------------------|
B|---------------------------------------------------------|
G|-----------99999999----------77777777--------------------|
D|--77777777-99999999-99999999-77777777--------------------|  5x
A|--77777777-77777777-99999999-55555555--------------------|
E|--55555555----------77777777-----------------------------|

e|---------------------------------------------------------|
B|---------------------------------------------------------|
G|-----------99999999--------------------------------------|
D|--77777777-99999999-99999999-99999999--------------------|  
A|--77777777-77777777-99999999-99999999--------------------|
E|--55555555----------77777777-77777777--------------------|


Verse 2
e|---------------------------------------------------------|
B|---------------------------------------------------------|
G|-----------------------------77777777--------------------|
D|--77777777-77777777-44444444-77777777--------------------|   9x
A|--77777777-77777777-44444444-55555555--------------------|
E|--55555555-44444444-22222222-----------------------------|


Chorus
e|---------------------------------------------------------|
B|---------------------------------------------------------|
G|-----------99999999----------77777777--------------------|
D|--77777777-99999999-99999999-77777777--------------------|  10x
A|--77777777-77777777-99999999-55555555--------------------|
E|--55555555----------77777777-----------------------------|


| /  slide up
| \  slide down
| h  hammer-on
| p  pull-off
| ~  vibrato
| +  harmonic
| x  Mute note
===============================================================================
Tap to rate this tab
 
# A B C D E F G H I J K L M N O P Q R S T U V W X Y Z