Song name
# A B C D E F G H I J K L M N O P Q R S T U V W X Y Z

Misc Unsigned Bands - Raliegh And The Skanks - Croc Song tab

Band Name: Raliegh and The Skanks
Song Title: Croc Song
Album: Smells Like Sex And Disintegration



  Intro/Chorus: (Play this 3 times)

|--------X-X-X-X--12--X--12--12--X--12--|  
|--------X-X-X-X--12--X--12--12--X--12--|
|--7--7--X-X-X-X--12--X--12--12--X--12--|                    
|--7--7--X---X----12--X----------X------|
|--5--5--X---X----10--X----------X------|
|--------X---X--------X----------X------|

         (Then play this once. Let ring)
   
|-------------------------------------|  
|-------------------------------------|
|--7--7--7--7-------------------------|                      
|--7--7--7--7-------------------------|
|--5--5--5--5--7--7--7--5--5----------|
|--------------5--5--5--3--3----------|

First verse:

Met this girl of mine...
Drugged her with some wine...
Asked her to suck me off...
But then she got greedy...
And bit my dick off...
  
  (Play this 3 times)

|--------X-X-X-X--12--X--12--12--X--12--|  
|--------X-X-X-X--12--X--12--12--X--12--|
|--7--7--X-X-X-X--12--X--12--12--X--12--|                    
|--7--7--X---X----12--X----------X------|
|--5--5--X---X----10--X----------X------|
|--------X---X--------X----------X------|

         (Then play this once. Let ring)
   
|-------------------------------------|  
|-------------------------------------|
|--7--7--7--7-------------------------|                      
|--7--7--7--7-------------------------|
|--5--5--5--5--7--7--7--5--5----------|
|--------------5--5--5--3--3----------|

2nd verse:

Sewed it on with some thread...
But it just falls off again...
I cried God, what could I do?...
And then I said fuck it...
And lived like a fool...

  (Play this 3 times)

|--------X-X-X-X--12--X--12--12--X--12--|  
|--------X-X-X-X--12--X--12--12--X--12--|
|--7--7--X-X-X-X--12--X--12--12--X--12--|                    
|--7--7--X---X----12--X----------X------|
|--5--5--X---X----10--X----------X------|
|--------X---X--------X----------X------|

         (Then play this once. Let ring)
   
|-------------------------------------|  
|-------------------------------------|
|--7--7--7--7-------------------------|                      
|--7--7--7--7-------------------------|
|--5--5--5--5--7--7--7--5--5----------|
|--------------5--5--5--3--3----------|


  Solo:
  
|-------------------------------------------------------------|
|----------------8~~---8-6-5-8-6-5---6-5h6p5(ht)21~-----------|
|----------5h7/9----------------------------------------------|
|------5h7-------------------------7--------------------------|
|----7--------------------------------------------------------|
|--8----------------------------------------------------------|

|-------8-10-(b)10-10~(p)8-----8----------------------------|
|--8/10--------------------10~---12-10-8--------------------|
|-------------------------------------------10-9(h)10(p)9---|
|----------------------------------------10-----------------|
|-----------------------------------------------------------|
|-----------------------------------------------------------|

|----------------------------------10--------------------------------|
|-------------------------------------13(p)10----10------------------|
|-------------------------10-(b)12~-----------12----(b)12(p)10-------|
|--10(p)8----8----8-10/12--------------------------------------12~---|
|---------10---10----------------------------------------------------|
|--------------------------------------------------------------------|

  (Play this 3 times)

|--------X-X-X-X--12--X--12--12--X--12--|  
|--------X-X-X-X--12--X--12--12--X--12--|
|--7--7--X-X-X-X--12--X--12--12--X--12--|                    
|--7--7--X---X----12--X----------X------|
|--5--5--X---X----10--X----------X------|
|--------X---X--------X----------X------|

         (Then play this once. Let ring)
   
|-------------------------------------|  
|-------------------------------------|
|--7--7--7--7-------------------------|                      
|--7--7--7--7-------------------------|
|--5--5--5--5--7--7--7--5--5----------|
|--------------5--5--5--3--3----------|

Last verse:

God this really sucks...
Now all I have are my nuts...
This is just to much to fix...
How the fuck can I go on
Without a prick...

  (Play this 3 times)

|--------X-X-X-X--12--X--12--12--X--12--|  
|--------X-X-X-X--12--X--12--12--X--12--|
|--7--7--X-X-X-X--12--X--12--12--X--12--|                    
|--7--7--X---X----12--X----------X------|
|--5--5--X---X----10--X----------X------|
|--------X---X--------X----------X------|

         (Then play this once. Let ring)
   
|-------------------------------------|  
|-------------------------------------|
|--7--7--7--7-------------------------|                      
|--7--7--7--7-------------------------|
|--5--5--5--5--7--7--7--5--5----------|
|--------------5--5--5--3--3----------|


Thanks for your time!
Tap to rate this tab
# A B C D E F G H I J K L M N O P Q R S T U V W X Y Z