Song name
# A B C D E F G H I J K L M N O P Q R S T U V W X Y Z

Misc Unsigned Bands - Swamp Monster - Prosthetic Leg tab

Song name is now Mannequinn

Drop A
* - pinch harmonic
. - palm mute
P - pull off
H - hammer on
~ - sustain note

Guitar 1 (tremelo pick this)
|-----------------|
|-----------------|
|-----------------|
|-9-8-5-6---------|
|---------8---5-4-|
|-----------9-----|x8

Guitar 2 (this is backing breakdown to first riff)
|----------------------------------|
|----------------------------------|
|----------------------------------|
|-000-000-0-------000-000-0--00-00-|
|-000-000-0-------000-000-0--00-00-|
|-000-000-0-------000-000-0--00-00-|x8
 ................................. 

Both guitars
|---------------------------------|
|---------------------------------|
|---------------------------------|
|-000---000---000---000---000-000-|
|-000---000---000---000---000-000-|
|-000---000---000---000---000-000-|x4
  ...............................

Both Guitars
|-------------------------|
|-------------------------|
|-------------------------|
|-1-0-1-0h1h3-0h1h4-0h1h3-|
|-1-0-1-------------------|
|-1-0-1-------------------|
  .....
Guitar 2 plays this 8 times. 
after 4 times guitar 1 plays this
|-------------------------|
|-------------------------|
|-------------------------|
|-4-3-4-3h4h6-3h4h7-3h4h6-|
|-4-3-4-------------------|
|-4-3-4-------------------|x4
  .....

Both guitars
|--------------------------------|
|--------------------------------|
|--------------------------------|
|-7-----7-----7-----7-----7------|
|---8-5---8-5---8-5---8-5---8-5~-|
|--------------------------------|x2

|--------------------------------|
|--------------------------------|
|--------------------------------|
|-8-----8-----8-----8-----8------|
|---9-6---9-6---9-6---9-6---9-6~-|
|--------------------------------|x2

which goes into

                       _______
Guitar 1                      |
|----------------------|      |
|----------------------|      |
|----------------------|      |
|-0--0-0-0--0--000-000-|      |
|-0--0-0-0--0--000-000-|      |
|-0--0-0-0--0--000-000-|x4    |
  ....................        | X 2
|----------------------|      |
|----------------------|      |
|----------------------|      |
|-1--1-1-1--1--111-111-|      |
|-1--1-1-1--1--111-111-|      |
|-1--1-1-1--1--111-111-|x4    |
  .................... _______|

                                 _______
while guitar 2 plays                    |
|--------------------------------|      |
|--------------------------------|      |
|--------------------------------|      |
|-7-----7-----7-----7-----7------|      |
|---8-5---8-5---8-5---8-5---8-5~-|      |
|--------------------------------|x2    |
                                        | X 2
|--------------------------------|      |
|--------------------------------|      |
|--------------------------------|      |
|-8-----8-----8-----8-----8------|      |
|---9-6---9-6---9-6---9-6---9-6~-|      |
|--------------------------------|x2    |
                                 _______|
pause, then bell

Guitar 1
|--------------------------|
|--------------------------|
|--------------------------|
|-1111111111111111-0--0--0--0-|
|-0000000000000000-0--0--0--0-|
|-1111111111111111-0--0--0--0-|x4
  ................

Guitar 2
|----------------------------------|
|----------------------------------|
|----------------------------------|
|----------------------------------|
|-1111111111111111-0-0-0-0-0-0-0-0-|
|-0000000000000000-0-0-0-0-0-0-0-0-|
|-1111111111111111-0-0-0-0-0-0-0-0-|x8 (guitar 1 plays this 4 times
  ................................        after the riff above)                                

Guitar 2 plays this 8 times.
Guitar one plays this 4 times then swatches to the riff below
|---------------------------------|
|---------------------------------|
|---------------------------------|
|-5p4-0-3-0-0-0-0-----------------|
|-5p4-0-3-0-0-0-0-5-5-5-5-4-4-4-4-|
|-5p4-0-3-0-0-0-0-3-3-3-3-2-2-2-2-|x8
      .   ....... 

Guitar 1 after 4 times riff above
|---------------------------------|
|---------------------------------|
|---------------------------------|
|-8p7-0-6-0-0-0-0-----------------|
|-8p7-0-6-0-0-0-0-8-8-8-8-7-7-7-7-|
|-8p7-0-6-0-0-0-0-6-6-6-6-5-5-5-5-|x4
      .   .......

Guitar 1 (tremelo pick)
|------------------------------------------------------------------|
|------------------------------------------------------------------|
|------------------------------------------------------------------|
|------------------------------------------------------------------|
|-----------------000000000000000033333333333333332222222222222222-|
|-4444444444444444-------------------------------------------------|x4

Guitar 2 (tremelo pick)
|------------------------------------------------------------------|
|------------------------------------------------------------------|
|------------------------------------------------------------------|
|------------------------------------------------------------------|
|-0000000000000000333333333333333366666666666666665555555555555555-|
|------------------------------------------------------------------|x4

Guitar 1 only
|--------------|
|--------------|
|--------------|
|-0-1-3-0-1-3~-|
|-0-1-2-0-1-2~-|
|-0-1---0-1----|x1
  ...   ...

Guitar 2 only
|----------------|
|----------------|
|----------------|
|-0-1-3-0-1-4----|
|-0-1-2-0-1-3-*3-|
|-0-1---0-1------|x1
  ...   ...

Both Guitars
|------------------------------|
|------------------------------|
|------------------------------|
|-0-1-3-0-1-3~--0-1-3-0-1-4-=--|
|-0-1-2-0-1-2~--0-1-2-0-1-3-*3-|
|-0-1---0-1-----0-1---0-1----=-|x6
  ...   ...     ...   ...

i love you willip
Tap to rate this tab
# A B C D E F G H I J K L M N O P Q R S T U V W X Y Z