Song name
# A B C D E F G H I J K L M N O P Q R S T U V W X Y Z

Misc Unsigned Bands - Brant Lingle - Renew tab

Guitar 1
--------------------------------------------------------------------9---10---|
-10---10---9---12---10---10---9---12---10---10---9---12---10---12------------|
----9----9---9----9----9----9---9----9----9----9---9----9----9----9---9----9-|
-----------------------------------------------------------------------------|
-----------------------------------------------------------------------------|
-----------------------------------------------------------------------------|

Guitar 2
---5-------------------5------------------5------------------5----5---0--5--|
-2---2--2/3----------2---2--0-----------2---2--2/3---------2----3---5-------|
------------------------------2---------------------------------------------|
----------------------------------------------------------------------------|
----------------------------------------------------------------------------|
----------------------------------------------------------------------------|

Guitar 1 plays first, once through, guitar 2 joins the second time.  After playing it 
twice, move on to verses:

 A       E       D2
-------0-------0-------0----------|
-----2-------0-------3-----3------|
---2-------1-------2---------2----|
-2-------2-------0-------------0--|
----------------------------------|
----------------------------------|
Repeat this ^ through the verses.

A       E     D2
Cleanse me, o Lord
And renew my mind
Wash away my sin
Of every kind

Teach me how
To live for You
Make me pure,
Holy and true

(Strum chords here)
A  E     D
Renew my heart
Purify my mind
Draw me close to You
Let your light shine
On me  (4x)
Tap to rate this tab
# A B C D E F G H I J K L M N O P Q R S T U V W X Y Z