Song name
# A B C D E F G H I J K L M N O P Q R S T U V W X Y Z

Misc Unsigned Bands - The Icarus Account - Hold On For Dear Life tab

INTRO
e|------------------------------------------------------------------|
B|------------------------------------------------------------------|
G|---7-----7----4~--------------------7----7----4~------------------|
D|--0-0---0-0---0~-------------------0-0--0-0---0~-----------------|X2
A|--------------x-------------------------------x-------------------|
E|-7-----0------3~------------------7----0------3~------------------|

FILL IN FOR INTRO
e|-------------------2-2-3-2-0------------------------2-2-3-5-------|
B|-------------------0-0-0-0-3------------------------0-0-0-0-------|
G|------------------------------------------------------------------|
D|------------------------------------------------------------------|
A|------------------------------------------------------------------|
E|------------------------------------------------------------------|

Verse 1
e|------------------------------------------------------------------|
B|------------------------------------------------------------------|
G|---7-----7-----4-----6--------------------------------------------|
D|--0-0---0-0---0-0---0-0-------------------------------------------|X3
A|------------------------------------------------------------------|
E|-7-----0-----3-----5----------------------------------------------|

e|------------------------------------------------------------------|
B|------------------------------------------------------------------|
G|---7-----7----4---6-----------------------------------------------|
D|--0-0---0-0---0---0-----------------------------------------------|X1
A|--------------x---x-----------------------------------------------|
E|-7-----0------3---5-----------------------------------------------|

e|------------------------------------------------------------------|
B|------------------------------------------------------------------|
G|-7--4--11--9------------------------------------------------------|
D|-0--0--0---0------------------------------------------------------|X1
A|-x--x--x---x------------------------------------------------------|
E|-7--3--10--9------------------------------------------------------|

e|------------------------------------------------------------------|
B|------------------------------------------------------------------|
G|-7--4--6--2-------------------------------------------------------|
D|-0--0--0--0-------------------------------------------------------|X2
A|-x--x--x--x-------------------------------------------------------|
E|-7--3--5--2-------------------------------------------------------|

e|------------------------------------------------------------------|
B|------------------------------------------------------------------|
G|-7--4--6----------------------------------------------------------|
D|-0--0--0----------------------------------------------------------|X1
A|-x--x--x----------------------------------------------------------|
E|-7--3--5----------------------------------------------------------|

e|------------------------------------------------------------------|
B|------------------------------------------------------------------|
G|-7--4--6--2-------------------------------------------------------|
D|-0--0--0--0-------------------------------------------------------|X1
A|-x--x--x--x-------------------------------------------------------|
E|-7--3--5--2-------------------------------------------------------|

e|------------------------------------------------------------------|
B|------------------------------------------------------------------|
G|-7--4--6----------------------------------------------------------|
D|-0--0--0----------------------------------------------------------|X1
A|-x--x--x----------------------------------------------------------|
E|-7--3--5----------------------------------------------------------|

Pre-Chorus
e|------------------------------------------------------------------|
B|------------------------------------------------------------------|
G|-7--4--11--9------------------------------------------------------|
D|-0--0--0---0------------------------------------------------------|X1
A|-x--x--x---x------------------------------------------------------|
E|-7--3--10--9------------------------------------------------------|

e|------------------------------------------------------------------|
B|------------------------------------------------------------------|
G|-7--4--6----------------------------------------------------------|
D|-0--0--0----------------------------------------------------------|X1
A|-x--x--x----------------------------------------------------------|
E|-7--3--5----------------------------------------------------------|

Chorus
e|------------------------------------------------------------------|
B|------------------------------------------------------------------|
G|-7--11--4--6------------------------------------------------------|
D|-0--0---0--0------------------------------------------------------|X3
A|-x--x---x--x------------------------------------------------------|
E|-7--10--3--5------------------------------------------------------|

e|------------------------------------------------------------------|
B|------------------------------------------------------------------|
G|-7--11--4~-6~-----------------------------------------------------|
D|-0--0---0~-0~-----------------------------------------------------|X1
A|-x--x---x--x------------------------------------------------------|
E|-7--10--3~-5~-----------------------------------------------------|

Post-Chorus
e|------------------------------------------------------------------|
B|------------------------------------------------------------------|
G|-7--4--11--9------------------------------------------------------|
D|-0--0--0---0------------------------------------------------------|X1
A|-x--x--x---x------------------------------------------------------|
E|-7--3--10--9------------------------------------------------------|

e|------------------------------------------------------------------|
B|------------------------------------------------------------------|
G|-7--4--6~---------------------------------------------------------|
D|-0--0--0~---------------------------------------------------------|X1
A|-x--x--x----------------------------------------------------------|
E|-7--3--5~---------------------------------------------------------|

Verse 2
e|------------------------------------------------------------------|
B|------------------------------------------------------------------|
G|-7--4--6~---------------------------------------------------------|
D|-0--0--0~---------------------------------------------------------|X2
A|-x--x--x----------------------------------------------------------|
E|-7--3--5~---------------------------------------------------------|

e|------------------------------------------------------------------|
B|------------------------------------------------------------------|
G|-7--4--6----------------------------------------------------------|
D|-0--0--0----------------------------------------------------------|X1
A|-x--x--x----------------------------------------------------------|
E|-7--3--5----------------------------------------------------------|

e|------------------------------------------------------------------|
B|------------------------------------------------------------------|
G|-7--4--6--2-------------------------------------------------------|
D|-0--0--0--0-------------------------------------------------------|x1
A|-x--x--x--x-------------------------------------------------------|
E|-7--3--5--2-------------------------------------------------------|

e|------------------------------------------------------------------|
B|------------------------------------------------------------------|
G|-7--4--6~---------------------------------------------------------|
D|-0--0--0~---------------------------------------------------------|x1
A|-x--x--x----------------------------------------------------------|
E|-7--3--5~---------------------------------------------------------|

Chorus
e|------------------------------------------------------------------|
B|------------------------------------------------------------------|
G|-7--11--4--6------------------------------------------------------|
D|-0--0---0--0------------------------------------------------------|X3
A|-x--x---x--x------------------------------------------------------|
E|-7--10--3--5------------------------------------------------------|

e|------------------------------------------------------------------|
B|------------------------------------------------------------------|
G|-7--11--4~-6~-----------------------------------------------------|
D|-0--0---0~-0~-----------------------------------------------------|X1
A|-x--x---x--x------------------------------------------------------|
E|-7--10--3~-5~-----------------------------------------------------|

Bridge
e|------------------------------------------------------------------|
B|------------------------------------------------------------------|
G|-4---6------------------------------------------------------------|
D|-0---0------------------------------------------------------------|X4
A|-x---x------------------------------------------------------------|
E|-3---5------------------------------------------------------------|

e|------------------------------------------------------------------|
B|------------------------------------------------------------------|
G|-7--4--6--222-2-2-------------------------------------------------|
D|-0--0--0--000-0-0-------------------------------------------------|X1
A|-x--x--x--xxx-x-x-------------------------------------------------|
E|-7--3--5--222-2-2-------------------------------------------------|

e|------------------------------------------------------------------|
B|------------------------------------------------------------------|
G|-7--4--6----------------------------------------------------------|
D|-0--0--0----------------------------------------------------------|X1
A|-x--x--x----------------------------------------------------------|
E|-7--3--5----------------------------------------------------------|

Outro
e|------------------------------------------------------------------|
B|------------------------------------------------------------------|
G|-7--4--6--2-------------------------------------------------------|
D|-0--0--0--0-------------------------------------------------------|X3
A|-x--x--x--x-------------------------------------------------------|
E|-7--3--5--2-------------------------------------------------------|

e|------------------------------------------------------------------|
B|------------------------------------------------------------------|
G|-7--4--6-66-66-66-66-66-66-66-4~---4/6-6~---6/11-11~--------------|
D|-0--0--0-00-00-00-00-00-00-00-0~---0/0-0~---0/0--0~---------------|X1
A|-x--x--x-xx-xx-xx-xx-xx-xx-xx-x----x/x-x----x/x--x----------------|
E|-7--3--5-55-55-55-55-55-55-55-3~---3/5-5~---5/10-10~--------------|


Lyrics

You caught my eye
Just like a color that I
Have never seen before
Something Oh so beautiful
How can I stand still
And let you walk right by
Wonder when you'll pass me by
Will my life ever change

Please stay Don't go
I want the world to know
I want Your heart
And nothing less than that tonight
Even if I have to shout your name
I know now that we can never be the same
So let's hold on for dear life

I can't believe this is happening
It's so much more than I thought it would be
I can't pretend it's a mystery
When you've got all of me

You're the only one I know
Who leaves me no control
You're the only one I need
So here's my everything
You're the only one I see
Girl it's just you and me, So
Let's try to make this scene played
Out on the movie screen, we
Never believed this was possible
Til now

I can't believe this is happening
It's so much more than I thought it would be
I can't pretend it's a mystery
When you've got all of me When you've got all of me

When you've got all of me...
When you've got all of me...
When you've got all of me...

Please stay Don't go
I want the world to know
I want Your heart
And nothing less than that tonight...
And nothing less than that tonight...
And nothing less than that tonight...
And nothing less than that tonight...
Tap to rate this tab
# A B C D E F G H I J K L M N O P Q R S T U V W X Y Z