Song name
# A B C D E F G H I J K L M N O P Q R S T U V W X Y Z

Misc Unsigned Bands - Raliegh And The Skanks - Im In Love With An Anorexic Girl tab

Band: Raliegh and The Skanks
Name: I'm In Love With An Anorexic Girl
Album: Smells Like Sex And Disintergration



Intro:(Slowly play twice without singing.)

|------------------------------------------------|
|------------------------------------------------|
|----------------------------6-------------------|
|------2----------6--------6---6--------9--------|
|----2---2------6---6----4-------4--9-9---9------|
|--0-------0--4-------4-------------7-------7----|

|------------------------------------------------|
|------------------------------------------------|
|------------------------------------------------|
|------2----------6------6---8--9----------------|
|----2---2------6---6----4---6--7--9/11-9--------|
|--0-------0--4-------4------------7/9--7--------|
     
(Repeat this and the singing part 2 times)

Lyrics: 

I'm in love...
With an anorexic girl...
Shes the bitch, who
Shapes my world...(Oh)
I'm in love...
With an anorexic girl...
Good, lord, just maybe...
She can teach me how to speak...
How to throw up when I eat (Till theres)
Vomit on her toilet seat (Oh)
She's my little baby

(After you've done that part twice, do it a 2nd time, but play and sing it faster and fuller)

|--0-0-0-0-0------------------------------------|
|--0-0-0-0-0-------------6-6-6-6-6--------------|
|--1-1-1-1-1-------------6-6-6-6-6--------------|
|--2-2-2-2-2--6-6-6-6-6--6-6-6-6-6--9-9-9-9-9---|
|--2-2-2-2-2--6-6-6-6-6--4-4-4-4-4--9-9-9-9-9---|
|--0-0-0-0-0--4-4-4-4-4-------------7-7-7-7-7---|


|--0-0-0-0-0------------------------------------|
|--0-0-0-0-0-------------6-6-6------------------|
|--1-1-1-1-1-------------6-6-6--8-9-------------|
|--2-2-2-2-2--6-6-6-6-6--6-6-6--8-9-9/11-9------|
|--2-2-2-2-2--6-6-6-6-6--4-4-4--6-7-9/11-9------|
|--0-0-0-0-0--4-4-4-4-4-------------7/9--7------|


Solo: (Play)

|---------------------------------------------------------|
|---------------------------------------------------------|
|---------------------------------------------------------|
|---------------------------------------------------------|
|-----2(h)4(p)2-----------6--4-4---4---6-7-6---2/4\2------|
|--0------------0---4(h)7---------------------------------|

|---------------------------------------------------------|
|---------------------------------------------------------|
|---------------------------------------------------------|
|---------------------------------------------------------|
|-----2(h)4(p)2-----------6--4-4---4---6-7--9--9/11--9----|
|--0------------0---4(h)7---------------------------------|

|---------------------------------------------------------|
|---------------------------------------------------------|
|---------------------------------------------------------|
|---------------------------------------------------------|
|-----2(h)4(p)2-----------6--4-4---4---6-7-6---2/4\2------|
|--0------------0---4(h)7---------------------------------|

|---------------------------------------------------------|
|---------------------------------------------------------|
|---------------------------------------------------------|
|---------------------------------------------------------|
|-----2(h)4(p)2-----------6--4-4---4---6-7--9--9/11--9----|
|--0------------0---4(h)7---------------------------------|

(End the song by playing this)

|--0-0-0-0-0------------------------------------|
|--0-0-0-0-0-------------6-6-6-6-6--------------|
|--1-1-1-1-1-------------6-6-6-6-6--------------|
|--2-2-2-2-2--6-6-6-6-6--6-6-6-6-6--9-9-9-9-9---|
|--2-2-2-2-2--6-6-6-6-6--4-4-4-4-4--9-9-9-9-9---|
|--0-0-0-0-0--4-4-4-4-4-------------7-7-7-7-7---|

|--0-0-0-0-0--------------------------------------------|
|--0-0-0-0-0-------------6-6-6-6------------------------|
|--1-1-1-1-1-------------6-6-6-6--8-8-8-8--9---9---9----|
|--2-2-2-2-2--6-6-6-6-6--6-6-6-6--8-8-8-8--9---9---9--2-|
|--2-2-2-2-2--6-6-6-6-6--4-4-4-4--6-6-6-6--7---7---7--2-|
|--0-0-0-0-0--4-4-4-4-4-------------------------------0-| Let ring

Thanks for your time!
Tap to rate this tab
# A B C D E F G H I J K L M N O P Q R S T U V W X Y Z