Song name
# A B C D E F G H I J K L M N O P Q R S T U V W X Y Z

Misc Unsigned Bands - Your First Time - Find Reality tab

----------------------------------------------------------------------------
			FIND REALITY - Your First Time
----------------------------------------------------------------------------
Music + Lyrics By: A. Dodd, N. Pankow
Tabbed by: N. Pankow
Email: yourfirsttimeband@hotmail.com
Tuning: Drop D (DADGBE)
www.myspace.com/yourfirsttimeband

E---------------------------------------------------------------------------|
B---------------------------------------------------------------------------|
G---------------------------------------------------------------------------|
D----0-----8------5-----3----2----0-------8------5------3-----2---2-2-2-2---|
A----0-----8------5-----3----2----0-------8------5------3-----2---2-2-2-2---|
D----0-----8------5-----3----2----0-------8------5------3-----2---2-2-2-2---|

E---------------------------------------------------------------------------|
B---------------------------------------------------------------------------|
G--17-15-14-15-14-12-14-14----10-10-10-10-9-9-9-9--10-10-10-10-12-12-12-12--|
D--X--X--X--X--X--X--X--X--0--8--8--8--8--8-8-8-8--8--8--8--8--8--8--8--8---|
A--15-13-12-13-12-10-12-12-0--8--8--8--8--8-8-8-8--8--8--8--8--8--8--8--8---|
D-0--0--0--0--0--0--0------0--8--8--8--8--8-8-8-8--8--8--8--8--8--8--8--8---|

E-----------------x-x---5-5-5-5---5-5---------------------------------------|
B-----------------x-x---6-6-6-6---6-6---------------------------------------|
G--7-7-7-7--7-7---x-x---7-7-7-7---7-7---------------------------------------|
D--5-5-5-5--8-8---x-x---8-8-8-8---8-8---3--3--3--3---5-5---2--2--2--2---3-3-|
A--5-5-5-5--5-5---x-x---5-5-5-5---5-5---3--3--3--3---5-5---2--2--2--2---3-3-|
D--5-5-5-5--5-5---x-x---5-5-5-5---5-5---3--3--3--3---5-5---2--2--2--2---3-3-|

E---------------------------------------------------------------------------|
B---------------------------------------------------------------------------|
G--17-15-14-15-14-12-14-14----10-10-10-10-9-9-9-9--10-10-10-10-12-12-12-12--|
D--X--X--X--X--X--X--X--X--0--8--8--8--8--8-8-8-8--8--8--8--8--8--8--8--8---|
A--15-13-12-13-12-10-12-12-0--8--8--8--8--8-8-8-8--8--8--8--8--8--8--8--8---|
D-0--0--0--0--0--0--0------0--8--8--8--8--8-8-8-8--8--8--8--8--8--8--8--8---|

E-----------------x-x---5-5-5-5---5-5---------------------------------------|
B-----------------x-x---6-6-6-6---6-6---------------------------------------|
G--7-7-7-7--7-7---x-x---7-7-7-7---7-7---------------------------------------|
D--5-5-5-5--8-8---x-x---8-8-8-8---8-8---3--3--3--3---5-5---2--2--2--2---3-3-|
A--5-5-5-5--5-5---x-x---5-5-5-5---5-5---3--3--3--3---5-5---2--2--2--2---3-3-|
D--5-5-5-5--5-5---x-x---5-5-5-5---5-5---3--3--3--3---5-5---2--2--2--2---3-3-|

E---------------------------------------------------------------------------|
B---------------------------------------------------------------------------|
G---------------------------------------------------------------------------|
D------0-------------------------------8------------------------------------|
A------0-------------------------------8------------------------------------|
D------0-------------------------------8------------------------------------|
        Sunset brings my day to this    lonely scarlet bay

E---------------------------------------------------------------------------|
B---------------------------------------------------------------------------|
G---------------------------------------------------------------------------|
D------5-------------------------------3------------------2-----------------|
A------5-------------------------------3------------------2-----------------|
D------5-------------------------------3------------------2-----------------|
Like a shipwreck in the open seas,  my memories float away.

E---------------------------------------------------------------------------|
B---------------------------------------------------------------------------|
G---------------------------------------------------------------------------|
D------0-------------------------------8------------------------------------|
A------0-------------------------------8------------------------------------|
D------0-------------------------------8------------------------------------|
       Now I try in vain            to find the missing piece.

E---------------------------------------------------------------------------|
B---------------------------------------------------------------------------|
G---------------------------------------------------------------------------|
D------5-------------------------------3------------------2-----------------|
A------5-------------------------------3------------------2-----------------|
D------5-------------------------------3------------------2-----------------|
  This puzzle's endless, just like dependence. I just want to be released.

E---------------------------------------------------------------------------|
B---------------------------------------------------------------------------|
G---------------------------------------------------------------------------|
D------0-------------------------------8------------------------------------|
A------0-------------------------------8------------------------------------|
D------0-------------------------------8------------------------------------|
       Darkness makes me blind.        I don't trust him, let's rewind.

E---------------------------------------------------------------------------|
B---------------------------------------------------------------------------|
G---------------------------------------------------------------------------|
D------5-------------------------------3------------------2-----------------|
A------5-------------------------------3------------------2-----------------|
D------5-------------------------------3------------------2-----------------|
     Back to when our lives were fine. I trusted you, then you lied.

E---------------------------------------------------------------------------|
B---------------------------------------------------------------------------|
G---------------------------------------------------------------------------|
D------0-------------------------------8------------------------------------|
A------0-------------------------------8------------------------------------|
D------0-------------------------------8------------------------------------|
      Now you're the worst,       and because you were the first.

E---------------------------------------------------------------------------|
B---------------------------------------------------------------------------|
G---------------------------------------------------------------------------|
D------5-------------------------------3------------------2-----------------|
A------5-------------------------------3------------------2-----------------|
D------5-------------------------------3------------------2-----------------|
       Different ink, different words. I hope this ends a curse.

E---------------------------------------------------------------------------|
B---------------------------------------------------------------------------|
G--17-15-14-15-14-12-14-14----10-10-10-10-9-9-9-9--10-10-10-10-12-12-12-12--|
D--X--X--X--X--X--X--X--X--0--8--8--8--8--8-8-8-8--8--8--8--8--8--8--8--8---|
A--15-13-12-13-12-10-12-12-0--8--8--8--8--8-8-8-8--8--8--8--8--8--8--8--8---|
D-0--0--0--0--0--0--0------0--8--8--8--8--8-8-8-8--8--8--8--8--8--8--8--8---|
  I need a new muse     cause this one's overused

E-----------------x-x---5-5-5-5---5-5---------------------------------------|
B-----------------x-x---6-6-6-6---6-6---------------------------------------|
G--7-7-7-7--7-7---x-x---7-7-7-7---7-7---------------------------------------|
D--5-5-5-5--8-8---x-x---8-8-8-8---8-8---3--3--3--3---5-5---2--2--2--2---3-3-|
A--5-5-5-5--5-5---x-x---5-5-5-5---5-5---3--3--3--3---5-5---2--2--2--2---3-3-|
D--5-5-5-5--5-5---x-x---5-5-5-5---5-5---3--3--3--3---5-5---2--2--2--2---3-3-|
   All I think or ever do is         corrupted by the thought of you.

E---------------------------------------------------------------------------|
B---------------------------------------------------------------------------|
G--17-15-14-15-14-12-14-14----10-10-10-10-9-9-9-9--10-10-10-10-12-12-12-12--|
D--X--X--X--X--X--X--X--X--0--8--8--8--8--8-8-8-8--8--8--8--8--8--8--8--8---|
A--15-13-12-13-12-10-12-12-0--8--8--8--8--8-8-8-8--8--8--8--8--8--8--8--8---|
D-0--0--0--0--0--0--0------0--8--8--8--8--8-8-8-8--8--8--8--8--8--8--8--8---|
  After this odyssey,         promise me     that you'll still astonish me

E-----------------x-x---5-5-5-5---5-5---------------------------------------|
B-----------------x-x---6-6-6-6---6-6---------------------------------------|
G--7-7-7-7--7-7---x-x---7-7-7-7---7-7---------------------------------------|
D--5-5-5-5--8-8---x-x---8-8-8-8---8-8---3--3--3--3---5-5---2--2--2--2---3-3-|
A--5-5-5-5--5-5---x-x---5-5-5-5---5-5---3--3--3--3---5-5---2--2--2--2---3-3-|
D--5-5-5-5--5-5---x-x---5-5-5-5---5-5---3--3--3--3---5-5---2--2--2--2---3-3-|
       favorite liar,   push me higher. Help me find reality.

E---------------------------------------------------------------------------|
B---------------------------------------------------------------------------|
G---------------------------------------------------------------------------|
D------0-------------------------------8------------------------------------|
A------0-------------------------------8------------------------------------|
D------0-------------------------------8------------------------------------|
       Create it.                    A pattern in my head.

E---------------------------------------------------------------------------|
B---------------------------------------------------------------------------|
G---------------------------------------------------------------------------|
D------5-------------------------------3------------------2-----------------|
A------5-------------------------------3------------------2-----------------|
D------5-------------------------------3------------------2-----------------|
       Choking on lust, I feel bad for us; I only want you in my bed.

E---------------------------------------------------------------------------|
B---------------------------------------------------------------------------|
G---------------------------------------------------------------------------|
D------0-------------------------------8------------------------------------|
A------0-------------------------------8------------------------------------|
D------0-------------------------------8------------------------------------|
       Create it.                    A pattern in my head.

E---------------------------------------------------------------------------|
B---------------------------------------------------------------------------|
G---------------------------------------------------------------------------|
D------5-------------------------------3------------------2-----------------|
A------5-------------------------------3------------------2-----------------|
D------5-------------------------------3------------------2-----------------|
       Choking on lust, I feel bad for us; I only want you in my bed.

E---------------------------------------------------------------------------|
B---------------------------------------------------------------------------|
G--17-15-14-15-14-12-14-14----10-10-10-10-9-9-9-9--10-10-10-10-12-12-12-12--|
D--X--X--X--X--X--X--X--X--0--8--8--8--8--8-8-8-8--8--8--8--8--8--8--8--8---|
A--15-13-12-13-12-10-12-12-0--8--8--8--8--8-8-8-8--8--8--8--8--8--8--8--8---|
D-0--0--0--0--0--0--0------0--8--8--8--8--8-8-8-8--8--8--8--8--8--8--8--8---|
  I need a new muse     cause this one's overused

E-----------------x-x---5-5-5-5---5-5---------------------------------------|
B-----------------x-x---6-6-6-6---6-6---------------------------------------|
G--7-7-7-7--7-7---x-x---7-7-7-7---7-7---------------------------------------|
D--5-5-5-5--8-8---x-x---8-8-8-8---8-8---3--3--3--3---5-5---2--2--2--2---3-3-|
A--5-5-5-5--5-5---x-x---5-5-5-5---5-5---3--3--3--3---5-5---2--2--2--2---3-3-|
D--5-5-5-5--5-5---x-x---5-5-5-5---5-5---3--3--3--3---5-5---2--2--2--2---3-3-|
   All I think or ever do is         corrupted by the thought of you.

E---------------------------------------------------------------------------|
B---------------------------------------------------------------------------|
G--17-15-14-15-14-12-14-14----10-10-10-10-9-9-9-9--10-10-10-10-12-12-12-12--|
D--X--X--X--X--X--X--X--X--0--8--8--8--8--8-8-8-8--8--8--8--8--8--8--8--8---|
A--15-13-12-13-12-10-12-12-0--8--8--8--8--8-8-8-8--8--8--8--8--8--8--8--8---|
D-0--0--0--0--0--0--0------0--8--8--8--8--8-8-8-8--8--8--8--8--8--8--8--8---|
  After this odyssey,         promise me     that you'll still astonish me

E-----------------x-x---5-5-5-5---5-5---------------------------------------|
B-----------------x-x---6-6-6-6---6-6---------------------------------------|
G--7-7-7-7--7-7---x-x---7-7-7-7---7-7---------------------------------------|
D--5-5-5-5--8-8---x-x---8-8-8-8---8-8---3--3--3--3---5-5---2--2--2--2---3-3-|
A--5-5-5-5--5-5---x-x---5-5-5-5---5-5---3--3--3--3---5-5---2--2--2--2---3-3-|
D--5-5-5-5--5-5---x-x---5-5-5-5---5-5---3--3--3--3---5-5---2--2--2--2---3-3-|
       favorite liar,   push me higher. Help me find reality.

E---------------------------------------------------------------------------|
B---------------------------------------------------------------------------|
G--17-15-14-15-14-12-14-14----10-10-10-10-9-9-9-9--10-10-10-10-12-12-12-12--|
D--X--X--X--X--X--X--X--X--0--8--8--8--8--8-8-8-8--8--8--8--8--8--8--8--8---|
A--15-13-12-13-12-10-12-12-0--8--8--8--8--8-8-8-8--8--8--8--8--8--8--8--8---|
D-0--0--0--0--0--0--0------0--8--8--8--8--8-8-8-8--8--8--8--8--8--8--8--8---|
  I need a new muse     cause this one's overused

E-----------------x-x---5-5-5-5---5-5---------------------------------------|
B-----------------x-x---6-6-6-6---6-6---------------------------------------|
G--7-7-7-7--7-7---x-x---7-7-7-7---7-7---------------------------------------|
D--5-5-5-5--8-8---x-x---8-8-8-8---8-8---3--3--3--3---5-5---2--2--2--2---3-3-|
A--5-5-5-5--5-5---x-x---5-5-5-5---5-5---3--3--3--3---5-5---2--2--2--2---3-3-|
D--5-5-5-5--5-5---x-x---5-5-5-5---5-5---3--3--3--3---5-5---2--2--2--2---3-3-|
   All I think or ever do is         corrupted by the thought of you.

E---------------------------------------------------------------------------|
B---------------------------------------------------------------------------|
G--17-15-14-15-14-12-14-14----10-10-10-10-9-9-9-9--10-10-10-10-12-12-12-12--|
D--X--X--X--X--X--X--X--X--0--8--8--8--8--8-8-8-8--8--8--8--8--8--8--8--8---|
A--15-13-12-13-12-10-12-12-0--8--8--8--8--8-8-8-8--8--8--8--8--8--8--8--8---|
D-0--0--0--0--0--0--0------0--8--8--8--8--8-8-8-8--8--8--8--8--8--8--8--8---|
  After this odyssey,         promise me     that you'll still astonish me

E-----------------x-x---5-5-5-5---5-5---------------------------------------|
B-----------------x-x---6-6-6-6---6-6---------------------------------------|
G--7-7-7-7--7-7---x-x---7-7-7-7---7-7---------------------------------------|
D--5-5-5-5--8-8---x-x---8-8-8-8---8-8---3--3--3--3---5-5---2--2--2--2---3-3-|
A--5-5-5-5--5-5---x-x---5-5-5-5---5-5---3--3--3--3---5-5---2--2--2--2---3-3-|
D--5-5-5-5--5-5---x-x---5-5-5-5---5-5---3--3--3--3---5-5---2--2--2--2---3-3-|
       favorite liar,   push me higher. Help me find reality.

E----------------------------------------------------------------------------|
B----------------------------------------------------------------------------|
G----------------------------------------------------------------------------|
D--0-----------8-8-8-8-8-8-8---5-5-5-5-5-5-5---5-3-3-3-3-3-5-3-2-2-2-2-2-3-2-|
A--0-----------8-8-8-8-8-8-8---5-5-5-5-5-5-5---5-3-3-3-3-3-5-3-2-2-2-2-2-3-2-|
D--0-----------8-8-8-8-8-8-8---5-5-5-5-5-5-5---5-3-3-3-3-3-5-3-2-2-2-2-2-3-2-|

E---------------------------------------------------------------------------|
B---------------------------------------------------------------------------|
G---------------------------------------------------------------------------|
D--0-0-0-0-0--8-8-8-8-8-8-8--5-5-5-5-5-5-5--5-3-3-3-3-3-5-3-2-2-2-2-2-3-2---|
A--0-0-0-0-0--8-8-8-8-8-8-8--5-5-5-5-5-5-5--5-3-3-3-3-3-5-3-2-2-2-2-2-3-2---|
D--0-0-0-0-0--8-8-8-8-8-8-8--5-5-5-5-5-5-5--5-3-3-3-3-3-5-3-2-2-2-2-2-3-2---|

E---------------------------------------------------------------------------|
B---------------------------------------------------------------------------|
G---------------------------------------------------------------------------|
D-0-0-0-0-0-0-0-0--0-0-0-0-0-0-0-0-----8-8-8-8-8-8-8-8--8-8-8-8-8-8-8-8-----|
A-0-0-0-0-0-0-0-0--0-0-0-0-0-0-0-0-----8-8-8-8-8-8-8-8--8-8-8-8-8-8-8-8-----|
D-0-0-0-0-0-0-0-0--0-0-0-0-0-0-0-0-----8-8-8-8-8-8-8-8--8-8-8-8-8-8-8-8-----|
  I need a new muse     cause this one's overused

E---------------------------------------------------------------------------|
B---------------------------------------------------------------------------|
G---------------------------------------------------------------------------|
D-5-5-5-5-5-5-5-5--5-5-5-5-5-5-5-5-----3-3-3-3-3-3-3-3---2-2-2-2-2-2-2-2----|
A-5-5-5-5-5-5-5-5--5-5-5-5-5-5-5-5-----3-3-3-3-3-3-3-3---2-2-2-2-2-2-2-2----|
D-5-5-5-5-5-5-5-5--5-5-5-5-5-5-5-5-----3-3-3-3-3-3-3-3---2-2-2-2-2-2-2-2----|
 All I think of ever do is             corrupted by the thought of you.

E---------------------------------------------------------------------------|
B---------------------------------------------------------------------------|
G---------------------------------------------------------------------------|
D-0-0-0-0-0-0-0-0--0-0-0-0-0-0-0-0-----8-8-8-8-8-8-8-8--8-8-8-8-8-8-8-8-----|
A-0-0-0-0-0-0-0-0--0-0-0-0-0-0-0-0-----8-8-8-8-8-8-8-8--8-8-8-8-8-8-8-8-----|
D-0-0-0-0-0-0-0-0--0-0-0-0-0-0-0-0-----8-8-8-8-8-8-8-8--8-8-8-8-8-8-8-8-----|
 After this odyssey, promise me that you'll still astonish me.

E---------------------------------------------------------------------------|
B---------------------------------------------------------------------------|
G---------------------------------------------------------------------------|
D-5-5-5-5-5-5-5-5--5-5-5-5-5-5-5-5-----3-3-3-3-3-3-3-3---2-2-2-2-2-2-2-2----|
A-5-5-5-5-5-5-5-5--5-5-5-5-5-5-5-5-----3-3-3-3-3-3-3-3---2-2-2-2-2-2-2-2----|
D-5-5-5-5-5-5-5-5--5-5-5-5-5-5-5-5-----3-3-3-3-3-3-3-3---2-2-2-2-2-2-2-2----|
 Favorite liar, push me higher.        Help me find reality.

****************************************************************************
Copyright Your First Time 2007.
****************************************************************************

Your First Time is:
Andrew Dodd- Vocals
Nik Pankow- Guitar
Chad Fudge- Bass
Taylor Leeder- Keys
Mat McAllister- Drums

www.myspace.com/yourfirsttimeband
Tap to rate this tab
# A B C D E F G H I J K L M N O P Q R S T U V W X Y Z