Song name
# A B C D E F G H I J K L M N O P Q R S T U V W X Y Z

Misc Unsigned Bands - Puscifer - Momma Sed tab

-------------------------------------------------------------------------------
			 Momma Sed - Puscifer
-------------------------------------------------------------------------------
Tabbed by: Vital
Email: vit213 at gmail.com

TUNING: maybe down a step 

-Intro:
	Acoustic guitar


   E|-----------------------------------------|
   B|-----------------------------------------|
   G|-----2h3-2p0-----------------------------|
   D|--------------3-5-------3h5-3p2----------|
   A|---------------------------------3/5--1--|
   E|-3---------------------------------------|


    Fig.1 Main riff) 
              Wake up, son ..... 
   E|-------------------------------|
   B|-------------------------------|
   G|-------------------------------|
   D|-5--3--3-3--5-5--3-3-----------|
   A|-5--3--3-3--5-5--3-3-----------|
   E|-3--1--1-1--3-3--1-1-----------|



   Life will have its way
              With your  
   E|--------------------------------|
   B|--------------------------------|
   G|--------------------------------|
   D|-----------3--------------------|
   A|---3--3---3---3-3---------------|
   E|---1--1---1---1-1---------------|

  
   pride, son 
   Fig.1 + Guitar 2
   E|----------5-----------|
   B|---8--6p8----8-6-8----|
   G|----------------------|
   D|----------------------|
   A|----------------------|
   E|----------------------|


          Gm
  Changes come
   E|-----5-6-5-----|
   B|---8-----------|
   G|---------------|
   D|---------------|
   A|---------------|
   E|---------------|



A#        F
Keep your dignity 
     E|-----5-6-5-----|
     B|---6-----------|
     G|---------------|
     D|---------------|
     A|---------------|
     E|---------------|


Take the high road 
         Gm
Take it like a man 

Gm
Momma said like the rain 
(this too shall pass) 
A#        F
like a kidney stone 
(this too shall pass) 
           
It's just a broken heart, son 
               Gm
This pain will pass away 
Tap to rate this tab
 
# A B C D E F G H I J K L M N O P Q R S T U V W X Y Z