Song name
# A B C D E F G H I J K L M N O P Q R S T U V W X Y Z

Misc Unsigned Bands - Defused - Xm-s Entrance tab

Help us improve GuitareTab! Take a short survey!
----------------------------------------------------------------------------
                      -XM-'s Entrance - Defused
----------------------------------------------------------------------------

Tuning: DADGBE

This is off Defused's debut CD Broken. It is pretty short and easy but fun to play. Be
to check out www.myspace.com/defusedtheband if your interested in them!

Technically the whole song is just alterations of the first riff, and then at the end of
song play the third riff. This song is pretty easy so if your a beginner this might be
cool song to work at? If your an intermediate player you might be able to have a little 
session with this song. When Defused plays this live they pretty much make it a big
session with solos and whatnot. Anyway, enjoy.

|------------------------------------------------------------------------|
|------------------------------------------------------------------------|
|------------------------------------------------------------------------|
|------------------------------------------------------------------------|
|0--3--0--3--0-0--3-5--0-3-0-3--000-00-----------------------------------|
|0--3--0--3--0-0--3-5--0-3-0-3--000-00-----------------------------------|


|------------------------------------------------------------------------|
|------------------------------------------------------------------------|
|------------------------------------------------------------------------|
|------------------------------------------------------------------------|
|0--3--0--3--0-0--3-5--0-3-0-3--XXXXX------------------------------------|
|0--3--0--3--0-0--3-5--0-3-0-3--XXXXX------------------------------------|

|------------------------------------------------------------------------|
|------------------------------------------------------------------------|
|------------------------------------------------------------------------|
|------------------------------------------------------------------------|
|0--3--0--3--0-0--3-5--0-3-0-3--111-0------------------------------------|
|0--3--0--3--0-0--3-5--0-3-0-3--111-0------------------------------------|
Related for Defused - Xm-s Entrance tab