Song name
# A B C D E F G H I J K L M N O P Q R S T U V W X Y Z

Misc Unsigned Bands - Killing Charisma - Still Dreaming tab

Tuning: E A D G B E
intro x2
|------------------------------------------------------------------------|
|------------------------------------------------------------------------|
|------------------------------------------------------------------------|
|-----7-----7---7------3-----3---3------10-----10---10------5-----5---5--|
|-5-5---5-5---5----1-1---1-1---1----8-8----8-8----8-----3-3---3-3---3----|
|------------------------------------------------------------------------|
verse x15
|---------------------------------------------------------------------------|
|---------------------------------------------------------------------------|
|-----7-----7---7------3-----3---3-------10------10---10------5-----5---5---|
|---7-----7----------3-----3----------10------10------------5-----5---------|
|-5-----5-----5----1-----1-----1----8-------8-------8-----3-----3-----3-----|
|---------------------------------------------------------------------------|

pre chorus x 2


|-------------------------------------------------------------------|
|-------------------------------------------------------------------|
|-7-7-7-7-7-7--3-3-3-3-3-3-3--10-10-10-10-10-10-10--5-5-5-5-5-5-5---|
|-7-7-7-7-7-7--3-3-3-3-3-3-3--10-10-10-10-10-10-10--5-5-5-5-5-5-5---|
|-5-5-5-5-5-5--1-1-1-1-1-1-1--8--8--8--8--8--8--8---3-3-3-3-3-3-3---|
|-------------------------------------------------------------------|
chorus x 3


|---------------------------------------------------------------------|
|---------------------------------------------------------------------|
|---------------------------------------------------------------------|
|-7-7-7-7-7-7-7--3-3-3-3-3-3-3--10-10-10-10-10-10-10--5-5-5-5-5-5-5---|
|-7-7-7-7-7-7-7--3-3-3-3-3-3-3--10-10-10-10-10-10-10--5-5-5-5-5-5-5---|
|-5-5-5-5-5-5-5--1-1-1-1-1-1-1--8--8--8--8--8--8--8---3-3-3-3-3-3-3---|

verse x 5
pre chorus x2
chourus x3
Tap to rate this tab
# A B C D E F G H I J K L M N O P Q R S T U V W X Y Z