Song name
# A B C D E F G H I J K L M N O P Q R S T U V W X Y Z

Misc Unsigned Bands - Vicious Instinct - High On Candy tab

Intro/chorus: Strumming Pattern up and down:

------------------------------------|
------------------------------------|
------------------------------------|
9-9-9-9-9-9-7-7-7-7-7-7-5-5-5-5-5-5-|
------------------------------------|
7-7-7-7-7-7-5-5-5-5-5-5-3-3-3-3-3-3-|

(8)Getting high on candy(8)

Verse is just bass:

Solo: Strumming pattern: Up and down
------------------------------------------------------------------|
------------------------------------------------------------------|
13-13-13-13-13-13-12-12-12-12-12-12-11-11-11-11-11-11-9-9-9-9-9-9-|
------------------------------------------------------------------|
11-11-11-11-11-11-10-10-10-10-10-10-9-9-9-9-9-9-9-9-9-7-7-7-7-7-7-|
------------------------------------------------------------------|

---------------------------------------------------|
---------------------------------------------------|
10-10-10-9-9-9-7-7-7-5-5-5-5-5-5-5-5-5-5-----------|
---------------------------------------------------|
8-8-8-7-7-7-5-5-5-3-3-3-3-3-3-3-3-3-3--------------|
---------------------------------------------------|

End song on....
-------|
-------|
-------|
9------|
-------|
7------|


Song order:
Intro/chorus
Verse
Chorus
Verse
Chorus
Solo
End song on....
Tap to rate this tab
# A B C D E F G H I J K L M N O P Q R S T U V W X Y Z