Song name
# A B C D E F G H I J K L M N O P Q R S T U V W X Y Z

Misc Unsigned Bands - Your First Time - Trampolines tab

----------------------------------------------------------------------------
			  Your First Time - TRAMPOLINES
----------------------------------------------------------------------------
Music + Lyrics: A. Dodd, N. Pankow
Tabbed by: N. Pankow
Email: yourfirsttimeband@hotmail.com
Tuning: DADGBE (Drop D)
www.myspace.com/yourfirsttimeband

E----------2-----------------2----------------------------------------------|
B------0-----0---0-------0-----0---0-------------4-------4---------------4--|
G----1---1-----1---1---1---1-----1---1-----------4-------4---------------4--|
D------------------------------------------4-----4-------4---------------4--|
A----------------------------------------2---2---2---2---2---2--2--2--2--2--|
D---------------------------------------------------------------------------|

E----------2-----------------2----------------------------------------------|
B------0-----0---0-------0-----0---0-----4-4-4-4----4-4-4-4----4-4-4-4---4--|
G----1---1-----1---1---1---1-----1---1---4-4-4-4----4-4-4-4----4-4-4-4---4--|
D----------------------------------------4-4-4-4----4-4-4-4----4-4-4-4---4--|
A----------------------------------------2-2-2-2----2-2-2-2----2-2-2-2---2--|
D---------------------------------------------------------------------------|

E---------------------------------------------------------------------------|
B---------------------------------------------------------------------------|
G---------------------------------------------------------------------------|
D--6-6-6--6-6-6--6---2-2-2-2-2-2-2-2----6-6-6--6-6-6--6---2-2-2-2-2-1-4-2---|
A--6-6-6--6-6-6--6---2-2-2-2-2-2-2-2----6-6-6--6-6-6--6---2-2-2-2-2-1-4-2---|
D--6-6-6--6-6-6--6---2-2-2-2-2-2-2-2----6-6-6--6-6-6--6---2-2-2-2-2-1-4-2---|

E---------------------------------------------------------------------------|
B---------------------------------------------------------------------------|
G---------------------------------------------------------------------------|
D--6-6-6--6-6-6--6---2-2-2-2-2-2-2-2----6-6-6--6-6-6--6---2-2-2-2-2-1-4-2---|
A--6-6-6--6-6-6--6---2-2-2-2-2-2-2-2----6-6-6--6-6-6--6---2-2-2-2-2-1-4-2---|
D--6-6-6--6-6-6--6---2-2-2-2-2-2-2-2----6-6-6--6-6-6--6---2-2-2-2-2-1-4-2---|

E---------------------------------------------------------------------------|
B---------------------------------------------------------------------------|
G---------------------------------------------------------------------------|
D--6-6-6--6-6-6--6---2-2-2-2-2-2-2-2----6-6-6--6-6-6--6---2-2-2-2-2-1-4-2---|
A--6-6-6--6-6-6--6---2-2-2-2-2-2-2-2----6-6-6--6-6-6--6---2-2-2-2-2-1-4-2---|
D--6-6-6--6-6-6--6---2-2-2-2-2-2-2-2----6-6-6--6-6-6--6---2-2-2-2-2-1-4-2---|

E---------------------------------------------------------------------------|
B---------------------------------------------------------------------------|
G---------------------------------------------------------------------------|
D--6-6-6--6-6-6--6---2-2-2-2-2-2-2-2----6-6-6--6-6-6--6---2-2-2-2-2-1-4-2---|
A--6-6-6--6-6-6--6---2-2-2-2-2-2-2-2----6-6-6--6-6-6--6---2-2-2-2-2-1-4-2---|
D--6-6-6--6-6-6--6---2-2-2-2-2-2-2-2----6-6-6--6-6-6--6---2-2-2-2-2-1-4-2---|

E---------------------------------------------------------------------------|
B---------------------------------------------------------------------------|
G---------------------------------------------------------------------------|
D--6------------------------------------------------------------------------|
A--6------------------------------------------------------------------------|
D--6------------------------------------------------------------------------|

E---------------------------------------------------------------------------|
B---------------------------------------------------------------------------|
G---------------------------------------------------------------------------|
D--6-6-6--------------------------------------------------6---6>>>>>>>>>1---|
A--6-6-6--------------------------------------------------6---6>>>>>>>>>1---|
D--6-6-6--------------------------------------------------6---6>>>>>>>>>1---|

E----------2----------------------------------------------------------------|
B------0---------------------------------------4----------------------------|
G----1---1-------------------------------------4----------------------------|
D-----------------------------------------4----4----------------------------|
A---------------------------------------2---2--2----------------------------|
D---------------------------------------------------------------------------|
             She's the only             cure,     for this disease.

E----------2----------------------------------------------------------------|
B------0---------------------------------------4----------------------------|
G----1---1-------------------------------------4----------------------------|
D-----------------------------------------4----4----------------------------|
A---------------------------------------2---2--2----------------------------|
D---------------------------------------------------------------------------|
             My mind's an endless       blur,     now I'm on my knees.

E----------2----------------------------------------------------------------|
B------0---------------------------------------4----------------------------|
G----1---1-------------------------------------4----------------------------|
D-----------------------------------------4----4----------------------------|
A---------------------------------------2---2--2----------------------------|
D---------------------------------------------------------------------------|
             I always dream of          her       while thinking constantly

E----------2----------------------------------------------------------------|
B------0---------------------------------------4----------------------------|
G----1---1-------------------------------------4----------------------------|
D-----------------------------------------4----4----------------------------|
A---------------------------------------2---2--2----------------------------|
D---------------------------------------------------------------------------|
             That she's the one for     sure,     why did she leave?

E---------------------------------------------------------------------------|
B---------------------------------------------------------------------------|
G---------------------------------------------------------------------------|
D--6-6-6--6-6-6--6---2-2-2-2-2-2-2-2----6-6-6--6-6-6--6---2-2-2-2-2-1-4-2---|
A--6-6-6--6-6-6--6---2-2-2-2-2-2-2-2----6-6-6--6-6-6--6---2-2-2-2-2-1-4-2---|
D--6-6-6--6-6-6--6---2-2-2-2-2-2-2-2----6-6-6--6-6-6--6---2-2-2-2-2-1-4-2---|
            This is how I really feel, I'd go through hell to make her real

E---------------------------------------------------------------------------|
B---------------------------------------------------------------------------|
G-------------------------------------------------------------------8/11/9--|
D--6-6-6--6-6-6--6---2-2-2-2-2-2-2-2----6-6-6--6-6-6--6---2-2-2-2-2---------|
A--6-6-6--6-6-6--6---2-2-2-2-2-2-2-2----6-6-6--6-6-6--6---2-2-2-2-2-6/9/7---|
D--6-6-6--6-6-6--6---2-2-2-2-2-2-2-2----6-6-6--6-6-6--6---2-2-2-2-2---------|
            Sleepless nights and trampolines, she was nothing but a dream.

E---------------------------------------------------------------------------|
B---------------------------------------------------------------------------|
G---------------------------------------------------------------------------|
D--6-6-6--6-6-6--6---2-2-2-2-2-2-2-2----6-6-6--6-6-6--6---2-2-2-2-2-1-4-2---|
A--6-6-6--6-6-6--6---2-2-2-2-2-2-2-2----6-6-6--6-6-6--6---2-2-2-2-2-1-4-2---|
D--6-6-6--6-6-6--6---2-2-2-2-2-2-2-2----6-6-6--6-6-6--6---2-2-2-2-2-1-4-2---|
            This is how I really feel, I'd go through hell to make her real.

E---------------------------------------------------------------------------|
B---------------------------------------------------------------------------|
G---------------------------------------------------------------------------|
D--6-6-6--6-6-6--6---2-2-2-2-2-2-2-2----6-6-6--6-6-6--6---2-2-2-2-2-1-4-2---|
A--6-6-6--6-6-6--6---2-2-2-2-2-2-2-2----6-6-6--6-6-6--6---2-2-2-2-2-1-4-2---|
D--6-6-6--6-6-6--6---2-2-2-2-2-2-2-2----6-6-6--6-6-6--6---2-2-2-2-2-1-4-2---|
            Sleepless nights and trampolines, she was nothing but a dream.

E---------------------------------------------------------------------------|
B---------------------------------------------------------------------------|
G---------------------------------------------------------------------------|
D--6------------------------------------------------------------------------|
A--6------------------------------------------------------------------------|
D--6------------------------------------------------------------------------|

E---------------------------------------------------------------------------|
B---------------------------------------------------------------------------|
G---------------------------------------------------------------------------|
D--6-6-6--------------------------------------------------------------------|
A--6-6-6--------------------------------------------------------------------|
D--6-6-6--------------------------------------------------------------------|

E----------2----------------------------------------------------------------|
B------0---------------------------------------4----------------------------|
G----1---1-------------------------------------4----------------------------|
D-----------------------------------------4----4----------------------------|
A---------------------------------------2---2--2----------------------------|
D---------------------------------------------------------------------------|
             Her smile lights up the    sky      it's irony.

E----------2----------------------------------------------------------------|
B------0---------------------------------------4----------------------------|
G----1---1-------------------------------------4----------------------------|
D-----------------------------------------4----4----------------------------|
A---------------------------------------2---2--2----------------------------|
D---------------------------------------------------------------------------|
             I'm drowning in her        eyes     drifting back to sleep

E----------2----------------------------------------------------------------|
B------0---------------------------------------4----------------------------|
G----1---1-------------------------------------4----------------------------|
D-----------------------------------------4----4----------------------------|
A---------------------------------------2---2--2----------------------------|
D---------------------------------------------------------------------------|
             It's no big             surprise    that she thinks of me

E----------2----------------------------------------------------------------|
B------0--------------------------------4-4-4-4--4-4-4-4--4-4-4-4---4-------|
G----1---1------------------------------4-4-4-4--4-4-4-4--4-4-4-4---4-------|
D---------------------------------------4-4-4-4--4-4-4-4--4-4-4-4---4-------|
A---------------------------------------2-2-2-2--2-2-2-2--2-2-2-2---2-------|
D---------------------------------------------------------------------------|            
Cause everytime she        cries    it's because of me.

E---------------------------------------------------------------------------|
B---------------------------------------------------------------------------|
G---------------------------------------------------------------------------|
D--6-6-6--6-6-6--6---2-2-2-2-2-2-2-2----6-6-6--6-6-6--6---2-2-2-2-2-1-4-2---|
A--6-6-6--6-6-6--6---2-2-2-2-2-2-2-2----6-6-6--6-6-6--6---2-2-2-2-2-1-4-2---|
D--6-6-6--6-6-6--6---2-2-2-2-2-2-2-2----6-6-6--6-6-6--6---2-2-2-2-2-1-4-2---|
            This is how I really feel, I'd go through hell to make her real

E---------------------------------------------------------------------------|
B---------------------------------------------------------------------------|
G-------------------------------------------------------------------8/11/9--|
D--6-6-6--6-6-6--6---2-2-2-2-2-2-2-2----6-6-6--6-6-6--6---2-2-2-2-2---------|
A--6-6-6--6-6-6--6---2-2-2-2-2-2-2-2----6-6-6--6-6-6--6---2-2-2-2-2-6/9/7---|
D--6-6-6--6-6-6--6---2-2-2-2-2-2-2-2----6-6-6--6-6-6--6---2-2-2-2-2---------|
            Sleepless nights and trampolines, she was nothing, nothing.

E---------------------------------------------------------------------------|
B---------------------------------------------------------------------------|
G---------------------------------------------------------------------------|
D--6-6-6--6-6-6--6---2-2-2-2-2-2-2-2----6-6-6--6-6-6--6---2-2-2-2-2-1-4-2---|
A--6-6-6--6-6-6--6---2-2-2-2-2-2-2-2----6-6-6--6-6-6--6---2-2-2-2-2-1-4-2---|
D--6-6-6--6-6-6--6---2-2-2-2-2-2-2-2----6-6-6--6-6-6--6---2-2-2-2-2-1-4-2---|
            This is how I really feel, I'd go through hell to make her real

E---------------------------------------------------------------------------|
B---------------------------------------------------------------------------|
G---------------------------------------------------------------------------|
D--6-6-6--6-6-6--6---2-2-2-2-2-2-2-2----6-6-6--6-6-6--6---2-2-2-2-2-2-2-2---|
A--6-6-6--6-6-6--6---2-2-2-2-2-2-2-2----6-6-6--6-6-6--6---2-2-2-2-2-2-2-2---|
D--6-6-6--6-6-6--6---2-2-2-2-2-2-2-2----6-6-6--6-6-6--6---2-2-2-2-2-2-2-2---|
            Sleepless nights and trampolines, she was nothing but a dream.

E---------------------------------------------------------------------------|
B---------------------------------------------------------------------------|
G-------------------------9-8h9p8-----------------------------9-8h9p8-------|
D---9-8---8-9--9-8-9-11-9--------11-9---9-8---8-9--9-8-9-11-9--------11-9---|
A-7-----9----11-----------------------7-----9----11-------------------------|
D---------------------------------------------------------------------------|

E---------------------------------------------------------------------------|
B---------------------------------------------------------------------------|
G-------------------------9-8h9p8-----------------------------9-8h9p8-------|
D---9-8---8-9--9-8-9-11-9--------11-9---9-8---8-9--9-8-9-11-9--------11-9---|
A-7-----9----11-----------------------7-----9----11-------------------------|
D---------------------------------------------------------------------------|

E---------------------------------------------------------------------------|
B---------------------------------------------------------------------------|
G-------------------------9-8h9p8-----------------------------9-8h9p8-------|
D---9-8---8-9--9-8-9-11-9--------11-9---9-8---8-9--9-8-9-11-9--------11-9---|
A-7-----9----11-----------------------7-----9----11-------------------------|
D---------------------------------------------------------------------------|

E---------------------------------------------------------------------------|
B---------------------------------------------------------------------------|
G-------------------------9-8h9p8-------------------------------------------|
D---9-8---8-9--9-8-9-11-9--------11-9---9-8---8-9---------------------------|
A-7-----9----11-----------------------7-----9-----11*^-11*^-11*^-11*^-11*^--|
D---------------------------------------------------------------------------|

E---------------------------------------------------------------------------|
B---------------------------------------------------------------------------|
G---------------------------------------------------------------------------|
D---------------------------------------------------------------------------|
A---------------------------------------------------------------------------|
D--3*^------------------------------------------------------------(((3*^)))-|

E---------------------------------------------------------------------------|
B---------------------------------------------------------------------------|
G---------------------------------------------------------------------------|
D--6-6-6--6-6-6--6---2-2-2-2-2-2-2-2----6-6-6--6-6-6--6---2-2-2-2-2-1-4-2---|
A--6-6-6--6-6-6--6---2-2-2-2-2-2-2-2----6-6-6--6-6-6--6---2-2-2-2-2-1-4-2---|
D--6-6-6--6-6-6--6---2-2-2-2-2-2-2-2----6-6-6--6-6-6--6---2-2-2-2-2-1-4-2---|
            This is how I really feel, I'd go through hell to make her real

E---------------------------------------------------------------------------|
B---------------------------------------------------------------------------|
G-------------------------------------------------------------------8/11/9--|
D--6-6-6--6-6-6--6---2-2-2-2-2-2-2-2----6-6-6--6-6-6--6---2-2-2-2-2---------|
A--6-6-6--6-6-6--6---2-2-2-2-2-2-2-2----6-6-6--6-6-6--6---2-2-2-2-2-6/9/7---|
D--6-6-6--6-6-6--6---2-2-2-2-2-2-2-2----6-6-6--6-6-6--6---2-2-2-2-2---------|
            Sleepless nights and trampolines, she was nothing but a dream.

E---------------------------------------------------------------------------|
B---------------------------------------------------------------------------|
G---------------------------------------------------------------------------|
D--6-6-6--6-6-6--6---2-2-2-2-2-2-2-2----6-6-6--6-6-6--6---2-2-2-2-2-1-4-2---|
A--6-6-6--6-6-6--6---2-2-2-2-2-2-2-2----6-6-6--6-6-6--6---2-2-2-2-2-1-4-2---|
D--6-6-6--6-6-6--6---2-2-2-2-2-2-2-2----6-6-6--6-6-6--6---2-2-2-2-2-1-4-2---|
            This is how I really feel, I'd go through hell to make her real.

E---------------------------------------------------------------------------|
B---------------------------------------------------------------------------|
G---------------------------------------------------------------------------|
D--6-6-6--6-6-6--6---2-2-2-2-2-2-2-2----6-6-6--6-6-6--6---2-2-2-2-2-1-4-2-6-|
A--6-6-6--6-6-6--6---2-2-2-2-2-2-2-2----6-6-6--6-6-6--6---2-2-2-2-2-1-4-2-6-|
D--6-6-6--6-6-6--6---2-2-2-2-2-2-2-2----6-6-6--6-6-6--6---2-2-2-2-2-1-4-2-6-|
            Sleepless nights and trampolines, she was nothing but a dream.

****************************************************************************
                       Copyright Your First Time 2007
****************************************************************************

Your First Time is:

Andrew Dodd- Vocals
Nik Pankow- Guitar
Chad Fudge- Bass
Taylor Leeder- Keys
Mat McAllister- Drums

www.myspace.com/yourfirsttimeband
Tap to rate this tab
# A B C D E F G H I J K L M N O P Q R S T U V W X Y Z