Song name
# A B C D E F G H I J K L M N O P Q R S T U V W X Y Z

Misc Unsigned Bands - Your First Time - Dirty Sheets tab

----------------------------------------------------------------------------
			Your First Time- Dirty Sheets
----------------------------------------------------------------------------
Music + Lyrics By: A. Dodd, N. Pankow
Tabbed by: N. Pankow
Email: yourfirsttimeband@hotmail.com
Tuning: Standard EBGDAE

****************************************************************************
Note!- This song is played with a capo on the 3rd fret.
****************************************************************************
It's not just individual chords. There's a strumming pattern.. listen to the song on 
to figure it out.

Chords:

E-----6-------5-------6-------6------|-------3-------3-------6-------6-|
B-----6-------6-------6-------6------|-------3-------6-------6-------6-|
G-----5-------5-------3-------3------|-------5-------5-------3-------3-|
D-----5-------3-------5-------5------|-------5-------3-------5-------5-|
A-----5-------3-------6-------6------|-------3-------3-------6-------6-|
E-----3-------3-------3-------3------|-------3-------3-------3-------3-|

You make me feel bad
You make me feel great
No time to chat
No time to masturbate.
Clean my schedule
Dirty my sheets.
My bed is full.
But I've been empty for weeks.
Maybe I hold you a little to tight,
but you're mine right?
These are your plans that shed the sunlight:
You're stayin home tonight.
Is that alright?
You make me feel bad
You make me feel great
No time to chat
No time to masturbate.
Clean my schedule
Dirty my sheets.
My bed is full,
But I've been empty for weeks.
Maybe I hold you a little to tight,
but you're mine right?
These are your plans:
You're stayin home tonight.
Is that alright?
You make me feel bad
You make me feel great
No time to chat
No time to mastur...WAIT!

E---------------------------------------------------------------------------|
B-------------------------------------15-16-15h16p15----15--16--18----------|
G------------------------15--17^--15-----------------17---------------------|
D---------------15-16-17----------------------------------------------------|
A-------15--18--------------------------------------------------------------|
E---------------------------------------------------------------------------|

E-------18p17p15------------------------------------------------------------|
B----------------18p16p15---------------------15-16-15-18-16-15h16-15h16-15-|
G-------------------------17^-15-17-17^-15----------------------------------|
D------------------------------------------17-------------------------------|
A---------------------------------------------------------------------------|
E---------------------------------------------------------------------------|

E------------------------------------------------------------(18)-----------|
B-------15------------------------------------------------18----------------|
G----------17p15h17p15----15-------------17-15-17^-15-----------------------|
D----------------------17----17p15h17p15------------------------------------|
A---------------------------------------------------------------------------|
E---------------------------------------------------------------------------|

****************************************************************************
                    Copyright Your First Time 2007
****************************************************************************

Your First Time is:
Andrew Dodd- Vocals
Nik Pankow- Guitar
Chad Fudge- Bass
Taylor Leeder- Keys
Mat McAllister- Drums

www.myspace.com/yourfirsttimeband
Tap to rate this tab
 
# A B C D E F G H I J K L M N O P Q R S T U V W X Y Z