Song name
# A B C D E F G H I J K L M N O P Q R S T U V W X Y Z

Misc Unsigned Bands - Gloria - Minha Paz tab

Tuning (Afinação): Drop B

B, F# , B , E , G# , C#


Parte 1

C#||-------------------------|-------------------------|
G#||-------------------------|-------------------------|
E ||-------11---------11-----|-------7---------7-------|
B ||---7----------9----------|---5----------5----------|
F#||-9---9------9---9--------|-3---3------3---3--------|
B ||-------------------------|-------------------------|


Parte 2

-------------------------------------------------------|
-------------------------------------------------------|
-------------------------------------------------------|
--7--7-5--7--7-7-7--7--7-7-7---9-10-10--10-10-10-10-10-|
--7--7-5--7--7-7-7--7--7-7-7---9-10-10--10-10-10-10-10-|
--7--7-5--7--7-7-7--7--7-7-7---9-10-10--10-10-10-10-10-|

-------------------------------------------------------------|
-------------------------------------------------------------|
-------------------------------------------------------------|
--7--7-5--7--7-7-7--7--7-7-7---9-10-10--10-10-10-10-12-12-12-|
--7--7-5--7--7-7-7--7--7-7-7---9-10-10--10-10-10-10-12-12-12-|
--7--7-5--7--7-7-7--7--7-7-7---9-10-10--10-10-10-10-12-12-12-|


Parte 3

-------------------------------------------------------------------------|
-------------------------------------------------------------------------|
----------------------------------------------------5-5-5-5-5-5-5-5-5-5--|
-2--2-0-2---2--2-0-2---------2--2-0-2---2--2-0-2----5-5-5-5-5-5-5-5-5-5--|
-2--2-0-2---2--2-0-2---------2--2-0-2---2--2-0-2----3-3-3-3-3-3-3-3-3-3--|
-2--2-0-2---2--2-0-2--5AH----2--2-0-2---2--2-0-2-------------------------|

-------------------------------------------------------------------------|
-------------------------------------------------------------------------|
----------------------------------------------------5-5-5-5-5-5-5-5-5-5--|
-2--2-0-2---2--2-0-2---------2--2-0-2---2--2-0-2----5-5-5-5-5-5-5-5-5-5--|
-2--2-0-2---2--2-0-2--2AH----2--2-0-2---2--2-0-2----3-3-3-3-3-3-3-3-3-3--|
-2--2-0-2---2--2-0-2---------2--2-0-2---2--2-0-2-------------------------|


Parte 4

--------------------------------------------------------------------|
--------------------------------------------------------------------|
----------------------------------5-5-5-5-5-5-5-5-7-7-7-7-7-7-7-7---|
--5-5-5-5-5-5-5-5-2-2-2-2-2-2-2-2-5-5-5-5-5-5-5-5-7-7-7-7-7-7-7-7---|
--5-5-5-5-5-5-5-5-2-2-2-2-2-2-2-2-3-3-3-3-3-3-3-3-5-5-5-5-5-5-5-5---|
--5-5-5-5-5-5-5-5-2-2-2-2-2-2-2-2-----------------------------------|

Parte 5

Obs: Há uma variação na última nota, porém ainda não consegui constatar a mudança.
Sei que é um A, porém não é um powerchord, parece ter uma variação que ainda não 
qual é.

--------------------------------------------------------------------|
--------------------------------------------------------------------|
----------------------------------5-5-5-5-5-5-5-5-5-5-5-5-5-5-5-5---|
--5-5-5-5-5-5-5-5-2-2-2-2-2-2-2-2-5-5-5-5-5-5-5-5-5-5-5-5-5-5-5-5---|
--5-5-5-5-5-5-5-5-2-2-2-2-2-2-2-2-3-3-3-3-3-3-3-3-3-3-3-3-3-3-3-3---|
--5-5-5-5-5-5-5-5-2-2-2-2-2-2-2-2-----------------------------------|

Parte 6

-------------------------------------------------------------------------|
-------------------------------------------------------------------------|
----------------------------------------------------5-5-5-5-5-5-5-5-5-5--|
-2--2-0-2---2--2-0-2---------2--2-0-2---2--2-0-2----5-5-5-5-5-5-5-5-5-5--|
-2--2-0-2---2--2-0-2---------2--2-0-2---2--2-0-2----3-3-3-3-3-3-3-3-3-3--|
-2--2-0-2---2--2-0-2--5AH----2--2-0-2---2--2-0-2-------------------------|

-------------------------------------------------------------------------|
-------------------------------------------------------------------------|
----------------------------------------------------5-5-5-5-5-5-5-5-5-5--|
-2--2-0-2---2--2-0-2---------2--2-0-2---2--2-0-2----5-5-5-5-5-5-5-5-5-5--|
-2--2-0-2---2--2-0-2--2AH----2--2-0-2---2--2-0-2----3-3-3-3-3-3-3-3-3-3--|
-2--2-0-2---2--2-0-2---------2--2-0-2---2--2-0-2-------------------------|

------------------------------------------|
------------------------------------------|
------------------------------------------|
--7-7-7-7-7-7-9-9-10-10-10-10-10-10-10-10-|
--7-7-7-7-7-7-9-9-10-10-10-10-10-10-10-10-|
--7-7-7-7-7-7-9-9-10-10-10-10-10-10-10-10-|


Parte 7

Obs: Aqui também há a mudança para a nota que não é um powerchord, portanto deixei o 
como última nota mesmo.

------------------------------------------------------------|
------------------------------------------------------------|
----------------------------------5-5-5-5-5-5-5-5-5~--------|
--5-5-5-5-5-5-5-5-2-2-2-2-2-2-2-2-5-5-5-5-5-5-5-5-5~--------|
--5-5-5-5-5-5-5-5-2-2-2-2-2-2-2-2-3-3-3-3-3-3-3-3-3~--------|
--5-5-5-5-5-5-5-5-2-2-2-2-2-2-2-2---------------------------|

Parte 8

-------------------------------------------------------------------------|
-------------------------------------------------------------------------|
----------------------------------5-5-5-5-5-5-5-5-5-5-5-5-5-5-5-5--------|
--5-5-5-5-5-5-5-5-2-2-2-2-2-2-2-2-5-5-5-5-5-5-5-5-5-5-5-5-5-5-5-5--5~----|
--5-5-5-5-5-5-5-5-2-2-2-2-2-2-2-2-3-3-3-3-3-3-3-3-3-3-3-3-3-3-3-3--5~----|
--5-5-5-5-5-5-5-5-2-2-2-2-2-2-2-2----------------------------------5~----|

Parte 1

Tente me Olhar, e provar que meu mundo acabou
Tente me mostrar que nada Restou


Parte 2

Se o tempo parar pra nós dois, Vou tentar te guardar
E eu deixo a saudade aqui, pra tentar continuar.


Parte 3

Hoje perco você, em meus braços e morro um pouco mais
Hoje perco você em mim, mesmo assim vou vivendo


Parte 4

Viver, sem você aqui, sem você sorrir pra mim, só mais uma vez.


Parte 1

Deixa eu te falar, eu procuro você em todos os cantos
mas só em você, eu encontro minha paz.


Parte 2

Se o tempo parar pra nós dois, vou tentar te guardar
E eu deixo a saudade aqui, pra tentar continuar


Parte 4

Viver, sem você aqui, sem você sorrir pra mim, só mais uma vez


Parte 5

Viver, sem você aqui, sem você sorrir pra mim, só mais uma vez


Parte 6

Outra vez, agarro meus sonhos e deixo o vento te trazer
Todo o frio vazio que sinto e sofro, nunca te esquecer, Nunca mais!


Parte 7

Viver, sem voce aqui, sem voce sorrir pra mim, só mais uma vez


Parte 4

Viver, sem você aqui, sem você sorrir pra mim, só mais uma vez


Parte 5

Viver, sem você aqui, sem você sorrir pra mim, só mais uma vez


Parte 4 x2

Mais uma vez, ver voce sorrir
só mais uma vez pra mim.


Parte 8

Mais uma vez, ver voce sorrir
só mais uma vez pra mim, só mais uma vez
Tap to rate this tab
# A B C D E F G H I J K L M N O P Q R S T U V W X Y Z