Song name
# A B C D E F G H I J K L M N O P Q R S T U V W X Y Z

Misc Unsigned Bands - Bbrb - Edb tab

Help us improve GuitareTab! Take a short survey!
E.D.B.

D-A-D-G-B-E

() = bend to that pitch
()b= whammy bar to that pitch
 b  = bend
  / = slide up
  \ = slide down

intro I(clean)
E------------------------------------------------------------|
B------------------------------------------------------------|
G------------------------------------------------------------|
D--0--8--7---0--5--7---0--3--5---0------5--------------------|
A-----------------------------------3/5----------------------|
D------------------------------------------------------------|


Intro I(clean)
E------------------------------------------------------------|
B------------------------------------------------------------|
G------------------------------------------------------------|
D--0--8--7---0--5--7---0--3--5---0------5--------------------|
A-----------------------------------3/5----------------------|
D------------------------------------------------------------|


intro II(heavy distortion)
E-------------------------------------------------------------|
B-------------------------------------------------------------|
G-------------------------------------------------------------|
D----10---9---7---9---7---5---7--5----------------------------|
A--7---7---7---7---5---5---5---5------------------------------|
D-------------------------------------------------------------|


intro II(heavy distortion)
E-------------------------------------------------------------|
B-------------------------------------------------------------|
G-------------------------------------------------------------|
D----10---9---7---9---7---5---7--5----------------------------|
A--7---7---7---7---5---5---5---5------------------------------|
D-------------------------------------------------------------|

intro II(heavy distortion)
E-------------------------------------------------------------|
B-------------------------------------------------------------|
G-------------------------------------------------------------|
D----10---9---7---9---7---5---7--5----------------------------|
A--7---7---7---7---5---5---5---5------------------------------|
D-------------------------------------------------------------|


pre-verse(heavy distortion)
E-------------------------------------------------------------|
B-------------------------------------------------------------|
G-------------------------------------------------------------|
D----10---9---7---9---7-----5(3)b-----------------------------|
A--7---7---7---7------7-----5(3)b-----------------------------|
D---------------------7-----5(3)b-----------------------------|

verse(heavy distortion)
E----------------------------------------------------------------|
B----------------------------------------------------------------|
G----------------------------------------------------------------|
D--5-6-7--5-6-7--5-6-7---18(20)-----5-6-7--5-6-7--5-6-7---3b-----|
A--5-6-7--5-6-7--5-6-7---18(20)-----5-6-7--5-6-7--5-6-7---3b-----|
D--5-6-7--5-6-7--5-6-7---18(20)-----5-6-7--5-6-7--5-6-7---3b-----|


verse(heavy distortion)
E----------------------------------------------------------------|
B----------------------------------------------------------------|
G----------------------------------------------------------------|
D--5-6-7--5-6-7--5-6-7---18(20)-----5-6-7--5-6-7--5-6-7---3b-----|
A--5-6-7--5-6-7--5-6-7---18(20)-----5-6-7--5-6-7--5-6-7---3b-----|
D--5-6-7--5-6-7--5-6-7---18(20)-----5-6-7--5-6-7--5-6-7---3b-----|


verse(heavy distortion)
E----------------------------------------------------------------|
B----------------------------------------------------------------|
G----------------------------------------------------------------|
D--5-6-7--5-6-7--5-6-7---18(20)-----5-6-7--5-6-7--5-6-7---3b-----|
A--5-6-7--5-6-7--5-6-7---18(20)-----5-6-7--5-6-7--5-6-7---3b-----|
D--5-6-7--5-6-7--5-6-7---18(20)-----5-6-7--5-6-7--5-6-7---3b-----|


verse(heavy distortion)
E----------------------------------------------------------------|
B----------------------------------------------------------------|
G----------------------------------------------------------------|
D--5-6-7--5-6-7--5-6-7---18(20)-----5-6-7--5-6-7--5-6-7---3b-----|
A--5-6-7--5-6-7--5-6-7---18(20)-----5-6-7--5-6-7--5-6-7---3b-----|
D--5-6-7--5-6-7--5-6-7---18(20)-----5-6-7--5-6-7--5-6-7---3b-----|


pre-chorus(heavy distortion)
E---------------------------------12b---|
B---------------------------------12b---|
G---------------------------------12b---|
D--0-5-7-5--0-3-5-3--0-1-4-1--0-0-------|
A--0-5-7-5--0-3-5-3--0-1-4-1--0-0-------|
D--0-5-7-5--0-3-5-3--0-1-4-1--0-0-------|


pre-chorus(heavy distortion)
E---------------------------------12b---|
B---------------------------------12b---|
G---------------------------------12b---|
D--0-5-7-5--0-3-5-3--0-1-4-1--0-0-------|
A--0-5-7-5--0-3-5-3--0-1-4-1--0-0-------|
D--0-5-7-5--0-3-5-3--0-1-4-1--0-0-------|


pre-chorus(heavy distortion)
E---------------------------------12b---|
B---------------------------------12b---|
G---------------------------------12b---|
D--0-5-7-5--0-3-5-3--0-1-4-1--0-0-------|
A--0-5-7-5--0-3-5-3--0-1-4-1--0-0-------|
D--0-5-7-5--0-3-5-3--0-1-4-1--0-0-------|

pre-chorus(heavy distortion)
E---------------------------------12b---|
B---------------------------------12b---|
G---------------------------------12b---|
D--0-5-7-5--0-3-5-3--0-1-4-1--0-0-------|
A--0-5-7-5--0-3-5-3--0-1-4-1--0-0-------|
D--0-5-7-5--0-3-5-3--0-1-4-1--0-0-------|
Related for Bbrb - Edb tab