Guitaretab - guitar tabs
Song name
# A B C D E F G H I J K L M N O P Q R S T U V W X Y Z

Misc Unsigned Bands - Bbrb - Michaels Song tab

michael's song

e-a-d-g-b-e

VERSE

E--X-X-X-X-X-X-X---X--------------------------------|
B--1-1--1-1-1--1-1---1------1-1-1-1-1-1-1-1---1-----|
G--2-2-2-2-2-2-2---2-----0-0-0-0-0-0-0---0----------|
D--3-3-3-3-3-3-3---3-----2-2-2-2-2-2-2---2----------|
A--3-3-3-3-3-3-3---3-----3-3-3-3-3-3-3---3----------|
E--X-X-X-X-X-X-X---X-----X-X-X-X-X-X-X---X----------|


VERSE

E--X-X-X-X-X-X-X---X--------------------------------|
B--1-1--1-1-1--1-1---1------1-1-1-1-1-1-1-1---1-----|
G--2-2-2-2-2-2-2---2-----0-0-0-0-0-0-0---0----------|
D--3-3-3-3-3-3-3---3-----2-2-2-2-2-2-2---2----------|
A--3-3-3-3-3-3-3---3-----3-3-3-3-3-3-3---3----------|
E--X-X-X-X-X-X-X---X-----X-X-X-X-X-X-X---X----------|


VERSE

E--X-X-X-X-X-X-X---X--------------------------------|
B--1-1--1-1-1--1-1---1------1-1-1-1-1-1-1-1---1-----|
G--2-2-2-2-2-2-2---2-----0-0-0-0-0-0-0---0----------|
D--3-3-3-3-3-3-3---3-----2-2-2-2-2-2-2---2----------|
A--3-3-3-3-3-3-3---3-----3-3-3-3-3-3-3---3----------|
E--X-X-X-X-X-X-X---X-----X-X-X-X-X-X-X---X----------|


VERSE

E--X-X-X-X-X-X-X---X--------------------------------|
B--1-1--1-1-1--1-1---1------1-1-1-1-1-1-1-1---1-----|
G--2-2-2-2-2-2-2---2-----0-0-0-0-0-0-0---0----------|
D--3-3-3-3-3-3-3---3-----2-2-2-2-2-2-2---2----------|
A--3-3-3-3-3-3-3---3-----3-3-3-3-3-3-3---3----------|
E--X-X-X-X-X-X-X---X-----X-X-X-X-X-X-X---X----------|


CHORUS a

E--X-X-X---0-0-X---X-X-X-------------------|
B--1-1--X---1-1-X---1--1-X---1-1-X---------|
G--2-2-X---2-2-X---X-X-X---0-0-X-----------|
D--3-3-X---2-2-X---2-2-X---2-2-X-----------|
A--3-3-X-------X---2-2-X---3-3-X-----------|
E--X-X-X-------X-------X---X-X-X-----------|


CHORUS b
[ Tab from: http://www.guitaretab.com/m/misc-unsigned-bands/98390.html ]
E--X-X-X---0-0-X---X-X-X-------------------|
B--1-1-X---1-1-X----1-1-X---1--1-X---------|
G--2-2-X---2-2-X---X-X-X---0-0-X-----------|
D--3-3-X---2-2-X---2-2-X---0-0-X-----------|
A--3-3-X-----------2-2-X---2-2-X-----------|
E--X-X-X---------------X---3-3-X-----------|


CHORUS a

E--X-X-X---0-0-X---X-X-X-------------------|
B--1-1--X---1-1-X---1--1-X---1-1-X---------|
G--2-2-X---2-2-X---X-X-X---0-0-X-----------|
D--3-3-X---2-2-X---2-2-X---2-2-X-----------|
A--3-3-X-------X---2-2-X---3-3-X-----------|
E--X-X-X-------X-------X---X-X-X-----------|


CHORUS b

E--X-X-X---0-0-X---X-X-X-------------------|
B--1-1-X---1-1-X----1-1-X---1--1-X---------|
G--2-2-X---2-2-X---X-X-X---0-0-X-----------|
D--3-3-X---2-2-X---2-2-X---0-0-X-----------|
A--3-3-X-----------2-2-X---2-2-X-----------|
E--X-X-X---------------X---3-3-X-----------|


CHORUS a

E--X-X-X---0-0-X---X-X-X-------------------|
B--1-1--X---1-1-X---1--1-X---1-1-X---------|
G--2-2-X---2-2-X---X-X-X---0-0-X-----------|
D--3-3-X---2-2-X---2-2-X---2-2-X-----------|
A--3-3-X-------X---2-2-X---3-3-X-----------|
E--X-X-X-------X-------X---X-X-X-----------|


CHORUS b

E--X-X-X---0-0-X---X-X-X-------------------|
B--1-1-X---1-1-X----1-1-X---1--1-X---------|
G--2-2-X---2-2-X---X-X-X---0-0-X-----------|
D--3-3-X---2-2-X---2-2-X---0-0-X-----------|
A--3-3-X-----------2-2-X---2-2-X-----------|
E--X-X-X---------------X---3-3-X-----------|


CHORUS a

E--X-X-X---0-0-X---X-X-X-------------------|
B--1-1--X---1-1-X---1--1-X---1-1-X---------|
G--2-2-X---2-2-X---X-X-X---0-0-X-----------|
D--3-3-X---2-2-X---2-2-X---2-2-X-----------|
A--3-3-X-------X---2-2-X---3-3-X-----------|
E--X-X-X-------X-------X---X-X-X-----------|


CHORUS b

E--X-X-X---0-0-X---X-X-X-------------------|
B--1-1-X---1-1-X----1-1-X---1--1-X---------|
G--2-2-X---2-2-X---X-X-X---0-0-X-----------|
D--3-3-X---2-2-X---2-2-X---0-0-X-----------|
A--3-3-X-----------2-2-X---2-2-X-----------|
E--X-X-X---------------X---3-3-X-----------|
Related for Bbrb - Michaels Song tab
Advertisement will be closed in 10 seconds